» » »

Sublime, Steppin Razor Bass tabs (ver.1)

Artists:  A B C D E F G H I J K L M N O P Q R S T U V W X Y Z # 

Steppin Razor Bass tabs (ver.1)

Sublime Tabs
 Rating:
4/5 (4 votes)
Steppin Razor lessons Tabs too difficult? Try these video lessons and learn fast
                Tuning:EADG
Group:Sublime


Intro
G:---------------------------------------------------------------|
D:---------------------------------------------------------------|
A:---0-00-0-00-------------0-00-0-00-----------------------------|
E:--------------2-22-2-22-------------2-22-2-22------------------|





Verse1    (if you wanna live, treat me good. if you wanna live, baby treat me good.)
G:---------------------------------------------------------------|
D:---------------------------------------------------------------|
A:---2-22-2-22-------------2-22-2-22-----------------------------|
E:-------------22-2222-22-------------2-22-2-22------------------|



Chorus1   (i'm like a steppin' razor to watch my sides, i'm dangerous, so dangerous.)x2 
G:---------------------------------------------------------------|
D:---------------------------------------------------------------|
A:---0~~~~~~~320---320-----0~~~~~~~320---320---------------------|
E:--------------2~~---2~~-------------2~~---2~~------------------|





Verse2    (if you are a bully, treat me good. if you are a bully, a bully, baby treat me good.)
G:---------------------------------------------------------------|
D:---------------------------------------------------------------|
A:---2-22-2-22-------------2-22-2-22-----------------------------|
E:-------------22-2222-22-------------2-22-2-22------------------|



Chorus2   (i'm like a steppin' razor to watch my sides, i'm dangerous, so dangerous.)x2
G:---------------------------------------------------------------|
D:---------------------------------------------------------------|
A:---0~~~~~~~320---320-----0~~~~~~~320---320---------------------|
E:--------------2~~---2~~-------------2~~---2~~------------------|





Verse3    (if you wanna live...)
G:---------------------------------------------------------------|
D:---------------------------------------------------------------|
A:---2-22-2-22-------------2-22-2-22-----------------------------|
E:--------------2-22-2-22-------------2-22-2-22------------------|



Chorus3   (dangerous.. i'm a...)
G:---------------------------------------------------------------|
D:---------------------------------------------------------------|
A:---0~~~~~~~320---320-----0~~~~~~~320--0-320--------------------|
E:--------------2~~---2~~-------------2~-2---2~------------------|





Solo 
G:---------------------------------------------------------------|
D:---------------------------------------------------------------|
A:---2-22-2-22-------------2-22-2-22-----------------------------|
E:--------------2-22-2-22-------------2-22-2-22------------------|



Outro
G:---------------------------------------------------------------|
D:---------------------------------------------------------------|
A:---0~~~~~~~320---320-----0~~~~~~~320--0-320--------------------|
E:--------------2~~---2~~-------------2~-2---2~------------------|





Sublime Forever :)
            
Submit corrections

comments powered by Disqus
↑ Back to top | Sublime Bass for Steppin Razor. Lyrics for acoustic guitar and electric guitar. Tablatures and chords are parodies/interpretations of the original songs. You may use it for private study, scholarship, research or language learning purposes only