» » »

Sublime, Steppin Razor Tabs (ver.1)

Artists:  A B C D E F G H I J K L M N O P Q R S T U V W X Y Z # 

Steppin Razor Tabs (ver.1)

Sublime Tabs
Rating:
0/5 (0 votes)
Steppin Razor lessons Tabs too difficult? Try these video lessons and learn fast
                Sublime
Robbin' the Hood
e-9-9-9-9-9h12-12-12-9-9-12-12-9-9-12-9----9-----------------------------
B---------------------------------------12--------------
G---------------------------------------------------------
D---------------------------------------------------------   
A---------------------------------------------------------
E---------------------------------------------------------

e--9-9-12-12-9-9-12-12-9-9-12-9---------------------------
B-------------------------------12-11---------------------
G---------------------------------------------------------
D---------------------------------------------------------   
A---------------------------------------------------------
E---------------------------------------------------------

not really any guitars in verses

Solo

e--14-----------------------------------------------------------------------------
B-----17---------17---------------------------------------------------------------
G--------16b-16b----16b--14-16-14-------------------------------------------------
D---------------------------------16--16-----13-14-16-16-16p13-------(2)-(4)-(6)--   
A--------------------------------------------------------------12-----------------
E---------------------------------------------------------------------------------

thats pretty much the whole song. not alot of guitar stuff but still a cool song.
            

comments powered by Disqus
↑ Back to top | Sublime Tabs for Steppin Razor. Lyrics for acoustic guitar and electric guitar. Tablatures and chords are parodies/interpretations of the original songs. You may use it for private study, scholarship, research or language learning purposes only