» » »

Steppin Razor Bass tabs (ver.2)

Artists:  A B C D E F G H I J K L M N O P Q R S T U V W X Y Z # 

Steppin Razor Bass tabs (ver.2)

Sublime
Rating:
0/5 (0 votes)

Hard to play? Try these video lessons and learn fast.
                Band: Sublime

Really simple song, just listen to it for timing.

INTRO
G----------|---------------------|
D-drum-kit-|---------------------|
A----------|---------------------| X2
E----------|5-55-5-55--2-22-2-22-|

VERSE
G----------------------|
D----------------------|
A----------------------| X2
E-7-77-7-77--2-22-2-22-|

CHORUS
G----------------------|
D----------------------|
A----------------------| X2
E-5555555555-222222222-|

BRIDGE
G----------------------|
D----------------------|
A----------------------| X2
E-5-55-5-55--2-22-2-22-|

SOLO
G-----------------------|
D-----------------------|
A-----------------------| X2
E-7-77-77-77--2-22-2-22-|

OUTRO
G-----------------------|
D-----------------------|
A-----------------------|
E-5~---------\2-22-2-22-|
            
Hard to play? Try these video lessons and learn fast. | Correct




comments powered by Disqus
↑ Back to top | Tablatures and chords are parodies/interpretations of the original songs. You may use it for private study, scholarship, research or language learning purposes only