>
 >
Seed 2

Seed 2 Bass Tabs

Sublime - Seed 2 chords, tabs, tablatures, lyrics

Guitar lessons | Add/correct | Request | Top 50 tabs Artists:  A B C D E F G H I J K L M N O P Q R S T U V W X Y Z 0-9

Seed 2 Bass Tabs – Sublime

CD, Sheet music, Poster

Do you like Seed 2? Share with your friends now
Bass TabsBass Tabs v2Bass Tabs v3ChordsDrum TabsTabsTabs v2Tabs v3Ukulele
   1st Verse                        
G|---------------------------------------------------------------------------|
D|---------------------------------------------------------------------------|
A|----------------------------------------3-32-------55---55-----------333333|
E|555555555555531111111111111333333333333--3--345530---5/7---3333333333------|

G|---------------------------------------------------------------------------|
D|-------------333333333355555555555-----------------------------------------|
A|33---------------------------------3---------------------------------------|
E|--55555555555---------------------------55555555555553111111111111133333333|

G|---------------------------------------------------------------------------|
D|---------------------------------------------------------------------------|
A|----3-320--55---5-----3-320--55---5------333333333-----------5555555-------|
E|333--3---3---5/7-3333--3---3---5/7--3333----------55555333333-------3333333|

G|---------------------------------------------------------------------------|
D|---------------------------------------------------------------------------|
A|---3h5-3333333333----------555555555---------------------------------------|
E|3h5--------------5555555555---------333333331111111133333333311111111333333|

G|---------------------------------------------------------------------------|
D|---------------------------------------------------------------------------|
A|11111111-------------------------------------------------------------------|
E|--------111111111-5--------------------------------------------------------|

 Solo

G|---------------------------------------------------------------------------|
D|77777777777777-----------------------------9------9----777777777777910977--|
A|--------------888888888888888-------------7-777777-777---------------------|
E|-----------------------------8888888888888---------------------------------|

G|---------------------------------------------------------------------------|
D|---------------------------------------------------------------------------|
A|8888888888810888--------------7---7777777777-------------------------------|
E|----------------8888888888888--7-0-----------------------------------------|

2nd Verse

G|---------------------------------------------------------------------------|
D|---------------------------------------------------------------------------|
A|-----------------------------------------3-320--55---5---55--3-32000-------|
E|5555555555555311111111111133333333333333--3---3---5/7--33--3--3-----1111111|

G|---------------------------------------------------------------------------|
D|---------------------------------------------------------------------------|
A|---------------332200-----33-----33---------55-------3h5-33333333333-------|
E|333333355555555------11111--11111--11133333---33333h5---------------5555555|

G|---------------------------------------------------------------------------|
D|---------------------------------------------------------------------------|
A|--555555555---------333333333----------------------------------------------|
E|55---------333333333---------5555555555511111111133333333311111111133333333|

G|---------------------------------------------------------------------------|
D|---------------------------7-7-7-7-----------------------------------------|
A|1111111111----------------7-7-7-7-7----------------------------------------|
E|----------11111111111-5--------------5-------------------------------------|





Comments


Popular Sublime tabs & chords
Caress Me Down Bass Tabs
Had A Dat 1 Bass Tabs
Jailhouse Bass Tabs
New Realization Bass Tabs
Caress Me Down Chords
Perfect World Chords
Seed Chords
April 29 199 Tabs
April 29, 1992 2 Tabs
Jailhouse Tabs


Song lyrics



↑ Back to top | Tablatures and chords are parodies/interpretations of the original songs. You may use it for private study, scholarship, research or language learning purposes only
© 2014 AZChords.com Contact us | Privacy policy | DMCA | Add/correct tabs | Request tabs | Top 50 tabs