» » »

Sublime, Seed Tabs (ver.2)

Artists:  A B C D E F G H I J K L M N O P Q R S T U V W X Y Z # 

Seed Tabs (ver.2)

Sublime Tabs
Rating:
0/5 (0 votes)
Seed lessons Tabs too difficult? Try these video lessons and learn fast
                Sublime - Seed
Album - Sublime 

Intro
|-----|-----|-----|
|-----|-----|-----|
|-----|-----|-----|
|--7--|--3--|--5--|
|--7--|--3--|--5--|
|--5--|--1--|--3--|


Verse
C-Am-F-G


Solo
|----------8-10-|-10^10-10-8----|---------
|-10-10-10------|------------10-|---------
|---------------|---------------|-10-10-10
|---------------|---------------|---------
|---------------|---------------|---------
|---------------|---------------|---------

----8-10-|-10^101010-10-8-10-|-----12---|
            

comments powered by Disqus
↑ Back to top | Sublime Tabs for Seed. Lyrics for acoustic guitar and electric guitar. Tablatures and chords are parodies/interpretations of the original songs. You may use it for private study, scholarship, research or language learning purposes only