» » »

Seed Bass tabs (ver.1)

Artists:  A B C D E F G H I J K L M N O P Q R S T U V W X Y Z # 

Seed Bass tabs (ver.1)

Sublime
Rating:
0/5 (0 votes)

Hard to play? Try these video lessons and learn fast.
                Seed Bass Tab by Sublime

Intro:

G|---------------------------------------|
D|---------------------------------------|
A|---------------------------------------|
E|-55555555555-3-11111111111-33333333333-|

Verse:

G|------------------------------------|
D|------------------------------------|
A|-3---33---0-0-----5-5-----5---------|
E|---3----3-----3-1-----5h7---3-33333-|

G|----------------------------------|
D|-----------------333333-555555----|
A|-3333333-----------------------3~-|
E|---------5555555------------------|

Repeat Intro

Verse 2:

G|---------------------------------|
D|---------------------------------| X2
A|-3---32-0-0-----5-5-----5--------|
E|---3--------3-1-----5h7---3-33-0-|

G|-------------------------------------|
D|-------------------------------------| X2
A|-33333322----------55555555----------|
E|----------55555555----------33333333-|

G|----------------------------------------------------|
D|----------------------------------------------------| 
A|---------------------------------1111111------------|
E|-1111111-3333333-1111111-3333333---------1111111-5~-|

Solo:

G|--------------------------------------------------------------|
D|-777777777777777-----------------------------------9--------9-| 
A|-----------------88888888888888---------------7-77---777777---|
E|--------------------------------8888888888888-----------------|

G|--------------------------------------------------------------------|
D|-7777777777-999-1010------------------------------------------------| 
A|---------------------88888888-8-10-8-10-8-8-10--------------7777777-|
E|-----------------------------------------------888888888888---------|

Repeat Intro

Verse 3:

G|---------------------------------|
D|---------------------------------| 
A|-3---32-0-0-----5-5-----5---55---|
E|---3--------3-1-----5h7---3----3-|

G|-----------------------------------------------------|
D|-----------------------------------------------------| 
A|-3---32-0-000-----------------------------3---3----3-|
E|---3----------3-1111111-3333333-555555555---5---55---|

G|------------------------------------------|
D|------------------------------------------| 
A|------33---------33---------55---------55-|
E|-1111----1111111----3333333----3333333----|

Ending:

G|-----------------------------------------------------|
D|-----------------------------------------------------| 
A|-33333333----------55555555----------3333333---------|
E|----------55555555----------33333333---------5555555-|

G|------------------------------------------------------------------|
D|------------------------------------------------------7---7---7---| 
A|---------------------------------1111111------------7---7---7---7~|
E|-1111111-3333333-1111111-3333333---------1111111-5~---------------|

By Leandro Haroutune.

Doubts, corrections or suggestions please mail me: 
            
Hard to play? Try these video lessons and learn fast. | Correct




comments powered by Disqus
↑ Back to top | Tablatures and chords are parodies/interpretations of the original songs. You may use it for private study, scholarship, research or language learning purposes only