» » »

Sublime, Caress Me Down Tabs (ver.3)

Artists:  A B C D E F G H I J K L M N O P Q R S T U V W X Y Z # 

Caress Me Down Tabs (ver.3)

Sublime Tabs
 Rating:
4/5 (4 votes)
Caress Me Down lessons Tabs too difficult? Try these video lessons and learn fast
                Ok guys, I sorta messed this thing up. I made the staff upside down. But if u play it that way the tab is right. I suggest listning to the real song first then trying to play this tab.


E =low e                  e= high e


E------5/6—6—6—6—5/6—6—6—6—5/6—6—6—6
----- ---------- ----------- --------------- ----------- --------
----- ---------- ---------------- ----------- --------------- ---
 ---------------- --------------------- -------------------------
----------------- ---------------------- -----------------------
e---------------------------------- -----------------------------


E---------------------- ---------------------------- ------------
-----6---5----------------------------------------------------
------------------------------------ --------------------------
---------------------------------- ----------------------------
-------------------------- ------------------------------------
e-------------------------------------- ------------------------


E------5/6—6—6—6—5/6—6—6—6—5/6—6—6—6
----- ---------- ----------- --------------- ----------- --------
----- ---------- ---------------- ----------- --------------- ---
 ---------------- --------------------- -------------------------
----------------- ---------------------- -----------------------
e--------------------------------- -----------------------------


E---------------------- ---------------------------- ------------
-----6---5----------------------------------------------------
------------------------------------ --------------------------
---------------------------------- ----------------------------
-------------------------- ------------------------------------
e-------------------------------------- ------------------------

E----6---6---6---------6-------6---6---6---------------------
------------------6--------------------------8---7—6-------
-------------------- ------------------------------------------
-------------------------------- ------------------------------
------------------------------ --------------------------------
e---------------------- ----------------------------------------

play it again from the top ^
            
Submit corrections

comments powered by Disqus
↑ Back to top | Sublime Tabs for Caress Me Down. Lyrics for acoustic guitar and electric guitar. Tablatures and chords are parodies/interpretations of the original songs. You may use it for private study, scholarship, research or language learning purposes only