» » »

Caress Me Down Bass tabs (ver.2)

Artists:  A B C D E F G H I J K L M N O P Q R S T U V W X Y Z # 

Caress Me Down Bass tabs (ver.2)

Sublime
Rating:
4/5 (13 votes)

Hard to play? Try these video lessons and learn fast.
                Standard Tuning

Intro x3
G-----------------------------------------|
D-----------------------------------------|
A-----------------------------5--4--------|
E--4h5-5-5--4h5-5-5--4h5-5-5--------------|

Bridge x1
G-----------------------------------------|
D-----------------------------------------|
A--------5-------------7------------------|
E--5-5-5----5----5-5-5----5---------------|

Chorus x?
G---------------------------------------------------|
D---------------------------------------------------|
A--------------------5-5----------------------7-7---|
E--4h5-5-5--4h5-5-5------5--4h5-5-5--4h5-5-5------5-|

He does this only 2 times in the song i think
Chorus Variation
G--------------------------------------------------------------------------|
D--------------------------------------------------------------------------|
A---------------------------17-17--------------------------------19-19-----|
E--16h17-17-17--16h17-17-17-------17----16h17-17-17--16h17-17-17-------17\-|

At the End of Chorus Variation he Slides back down and starts
into the Chorus again, if you listen you can here him.
            
Hard to play? Try these video lessons and learn fast. | Correct




comments powered by Disqus
↑ Back to top | Tablatures and chords are parodies/interpretations of the original songs. You may use it for private study, scholarship, research or language learning purposes only