» » »

Sublime, Caress Me Down Bass tabs (ver.1)

Artists:  A B C D E F G H I J K L M N O P Q R S T U V W X Y Z # 

Caress Me Down Bass tabs (ver.1)

Sublime Tabs
Rating:
5/5 (1 vote)
Caress Me Down lessons Tabs too difficult? Try these video lessons and learn fast
                ----------------------------------------------------------------------------
			     Caress me down by Sublime
----------------------------------------------------------------------------


Tuning: E,A,D,G
    Intro: Play this 3 times
G|---------------------------------|
D|---------------------------------|X3
A|-------------------------5---4---|
E|-4h5-5-5-4h5-5-5-4h5-5-5---------|



G|---------------------------------|---------------------------------|
D|---------------------------------|---------------------------------|
A|---------------------5-----------|---------------------7-----------|
E|-5-----5-----5-----------5-------|-5-----5-----5---------------5---|


======================================================================


 Verse 1:
            Mucho gusto...1st
        You hate me cause...2nd
G|---------------------------------|---------------------------------|
D|---------------------------------|---------------------------------|X2
A|-----------------5---5-----------|-----------------7---7-----------|
E|-4h5-5-5-4h5-5-5---------5~------|-4h5-5-5-4h5-5-5---------5~------|

        So she told me.....
G|---------------------------------|-----------------------------------|
D|-6h7-7-7-7-7-7-7---------7~------|-6h7-7-7-7-7-7-7-------------------|
A|-----------------5---5-----------|-----------------7---7-------------|
E|---------------------------------|-------------------------155-------|




   And when it came out.....
G|----------------------------------|--------------------------------|
D|----------------------------------|--------------------------------|
A|-----------------5---5-----------|-----------------7---7-----------|
E|-4h5-5-5-4h5-5-5---------5~------|-4h5-5-5-4h5-5-5--------5~-------|


=====================================================================

  Chorus:

   ugh.....
G|---------------------------------|---------------------------------|
D|---------------------------------|---------------------------------|
A|-----------------5---5-----------|-----------------7---7-----------|
E|-4h5-5-5-4h5-5-5---------5~------|-4h5-5-5-4h5-5-5---------5~------|


=====================================================================

  Verse 2: Play this 4 times.

   When I kiss...1st
   En orto lado...2nd
   Sus padres...3rd
   Yo fui a costa rica...4th
G|---------------------------------|---------------------------------|
D|---------------------------------|---------------------------------|X4
A|-----------------5---5-----------|-----------------7---7-----------|
E|-4h5-5-5-4h5-5-5---------5~------|-4h5-5-5-4h5-5-5---------5~------|

=====================================================================
   Chorus: (See chorus)
=====================================================================
   Bridge: (same as intro)
=====================================================================

   Verse 3:

   Me gusta mi reggae...
G|---------------------------------|---------------------------------|
D|-6h7-7-7-7-7-7-7---------7~------|-6h7-7-7-7-7-7-7-----------------|X1
A|-----------------5---5-----------|-----------------7---7-----------|
E|---------------------------------|-------------------------155-----|
   Pon la nalga en el aire...1
       Tenga miedo...2
G]---------------------------------|---------------------------------|
D]---------------------------------|---------------------------------|X2
A]-----------------5---5-----------|-----------------7---7-----------|
E]-4h5-5-5-4h5-5-5---------5~------|-4h5-5-5-4h5-5-5---------5~------|

=======================================================
           Chorus: (see chorus)
=======================================================
                ...Caress me down
G]---------------------------------|---------------------------------|
D]---------------------------------|---------------------------------|
A]-----------------5---5-----------|-----------------7---7-----------|
E]-5-5-5-5-5-5-5-5---------5~------|-5-5-5-5-5-5-5-5---------5~------|


G]---------------------------------|---------------------------------|
D]---------------------------------|---------------------------------|
A]---------------------5-----------|---------------------7-----------|
E]-5-----5-----5-----------5~------|-5-----5-----5-----------------5-|

G]---------------------------------|---------------------------------|
D]---------------------------------|---------------------------------|
A]---------------------5-----------|---------------------7-----------|
E]-5-----5-----5-----------5-------|-5-----5-----5---------------5---|
           END


| /  slide up
| \  slide down
| h  hammer-on
| p  pull-off
| ~  vibrato
| +  harmonic
| x  Mute note

Well, There ya go. Thats they way I have always played this song. To me it sounds right. 
any one has any suggestions, feel free. thanks and enjoy.
            

comments powered by Disqus
↑ Back to top | Sublime Bass for Caress Me Down. Lyrics for acoustic guitar and electric guitar. Tablatures and chords are parodies/interpretations of the original songs. You may use it for private study, scholarship, research or language learning purposes only