» » »

Sublime, Bad Fish Bass tabs (ver.1)

Artists:  A B C D E F G H I J K L M N O P Q R S T U V W X Y Z # 

Bad Fish Bass tabs (ver.1)

Sublime Tabs
Rating:
4/5 (1 vote)
Bad Fish lessons Tabs too difficult? Try these video lessons and learn fast
                BADFISH

Hi Guys! I couldn't find a good badfish out there for bass so I decided to make my own rendition.

The Intro is optional. You don't have to play it but you can if you want to.


Intro (x2)  
G|------------|------------|------------|------------|
D|------------|------------|------------|------------|
A|0-----------|2-----------|------------|0-----------|
E|------------|------------|3-----------|------------|


Riff 1 (x2)
G|---------------------------|---------------------------|
D|------7--7--7--9--7--6--7--|------9--11-12-------------|
A|----7----------------------|----9----------------------|
E|5--------------------------|7--------------------------|


G|---------------------------|---------------------------|
D|---------------------------|------7-7------------------|
A|----------5------------5---|----------------7-7-7------|
E|3---3-3-3----3---3-3-3-----|5---5-----5--5-------------|


Chorus
G|---------------------------|---------------------------|
D|---------------------------|---------------------------|
A|---------------------------|5---5-5--5--5---5-5--5-----|
E|5---5-5--5--5---5-5--5-----|---------------------------|

G|---------------------------|---------------------------|
D|---------------------------|---------------------------|
A|---------------------------|---------------------------|
E|3---3-3--3--3---3-3--3-----|5---5-5--5--5---5-5--5-----|


Main Chorus (x3)
G|---------------------------|---------------------------|
D|---------------------------|---------------------------|
A|5---5-5--5--5---5-5--5-----|---------------------------|
E|---------------------------|5---5-5--5--5---5-5--5-----|


Chorus End
G|---------------------------|---------------------------|
D|---------------------------|---------------------------|
A|5---5-5--5--5---5-5--5-----|---------------------------|
E|---------------------------|7--------------------------|


Riff 1

Chorus

Main Chorus

Chorus End


Part Leading to GUitar Solo
G|------------|------------|------------|------------|
D|------------|------------|------------|------------|
A|0-----------|2-----------|------------|0-----------|
E|------------|------------|3-----------|------------|


Riff 1

Main Chorus 

Chorus End
            
Submit corrections

comments powered by Disqus
↑ Back to top | Sublime Bass for Bad Fish. Lyrics for acoustic guitar and electric guitar. Tablatures and chords are parodies/interpretations of the original songs. You may use it for private study, scholarship, research or language learning purposes only