» » »

Bad Fish Tabs (ver.2)

Artists:  A B C D E F G H I J K L M N O P Q R S T U V W X Y Z # 

Bad Fish Tabs (ver.2)

Sublime
Rating:
4/5 (3 votes)

Hard to play? Try these video lessons and learn fast.
                
  Intro Chords        Verse Chords (SKA)
E--0---0---0---0----|----5---7---3-------------|
B--2---3---0---2----|----5---7---3-------------|
G--2---4---4---2----|----6---7---4---7---9-----|
D--2---4---5---2----|----7---9---5---7---9-----|
A--0---2---5---0----|----7---9---5---5---7-----|
E----------3--------|----5---7---3-------------|
   A   Bm  G   A         A   Bm  G   D   E

Intro 2x (A  Bm  G  A)

Verse 1
A                       Bm       G                             A
When you grab a hold of me, you tell me that I'll never be set free
              Bm     G                              A
But I'm a parasite, creep and crawl I step into the night.
             D      G                          A
Two pints of booze. Tell me are you a bad fish too? (are you a badfish too?)
D                     A       D                     A
Ain't got no money to spend. I hope the night would never end.
D               A              D                       E
Lord knows I'm weak. Won't somebody get me off of this reef?

Verse 2
A                    Bm    G                                  A
Baby your a big blue whale grab the reef when all duck divin' fails
                          Bm            G                         A
I swim, but I wish I never learned, the water's too pulluted with germs
                                    D
I dive deep when it's ten feet over head.
G                           A
grab the reef underneath my bed (underneath my bed)
D                          A    D                        A
Ain't got no quarrels with God, ain't got no time to get old.
D              A               D                       E
Lord knows I'm weak, won't somebody get me off of this reef?

Play Intro

A  Bm  G  A

E|------------------------------------------------------|
B|------------------------------------------------------|
G|-2~~~~2-2/4--------2-4--1h2p1-------------------------|
D|--------------2h4-------------2-2/4-------------------|
A|-------------------------------------2p0-2h4~~~~------|
E|------------------------------------------------------|

E|---------------------------5----------------|
B|-----------------------------7--------------|
G|--------------2p1--------------6-4-2h4-2~~~-|
D|-----2h4-4-2------2-2h4---------------------|
A|-2h4----------------------------------------|
E|--------------------------------------------|


Verse 3
D                          A    D                        A
Ain't got no quarrels with God, ain't got no time to get old
D              A               D                       E
Lord knows I'm weak, won't somebody get me off of this reef?
            
Hard to play? Try these video lessons and learn fast. | Correct




comments powered by Disqus
↑ Back to top | Tablatures and chords are parodies/interpretations of the original songs. You may use it for private study, scholarship, research or language learning purposes only