>
 >
Badfish

Badfish Bass Tabs

Sublime - Badfish chords, tabs, tablatures, lyrics

Guitar lessons | Add/correct | Request | Top 50 tabs Artists:  A B C D E F G H I J K L M N O P Q R S T U V W X Y Z 0-9

Badfish Bass Tabs – Sublime

CD, Sheet music, Poster

Do you like Badfish? Share with your friends now
Bass TabsBass Tabs v2Bass Tabs v3ChordsChords v2TabsUkulele

                                                 Badfish
                                                                                          Sublime
Bass



     W                     W                   W                   W                   W
G||-----------------||--------------------|-------------------|-------------------|------------||
D||-----------------||*-------------------|-------------------|-------------------|-----------*||
A||-----------------||*-------------------|-------------------|-------------------|-----------*||
E||-----------------||---5----------------|--7----------------|--3----------------|--5---------||


  E.  S E  E    E  E  E  E     E.  S E   E   Q.      S S    E  S S S E  S E  S S S E  S  
----------------------------|----------------------------|------------------------------|
-----------7--7g9--7--6--7--|--------9--11--12\----------|------------------------------|
--------7-------------------|------9---------------------|-----5-5-5---------5-5-5------|
--5---5---------------------|--7-----------------------0-|--3--------3----3--------3----|


  E  S S S E  S E  S S S E.     E.  S E  E    E  E  E  E     E.  S E   E   Q.      S S  
-----------------------------|----------------------------|----------------------------|
-----7-7-7-7-----------------|-----------7--7g9--7--6--7--|--------9--11--12\----------|
-------------------7-7-7-7---|--------7-------------------|------9---------------------|
--5-----------0-5------------|--5---5---------------------|--7-----------------------0-|


  S E  S S S E  S E  S S S S S    S E  S S S E  S E  S S S E     E.  S S S S S E.  S S S S S  
-------------------------------|------------------------------|------------------------------|
-------------------------------|------------------------------|------------------------------|
---------5---5---------5-5-5---|---------7---7---------7---7--|------------------------------|
--3----3--------3----3-------3-|--5----5--------5----5--------|--5---5-5---5---5---5-5---5---|


  E.  S S S S S E.  S S S S S    E.  S S S S S E.  S S S S S    E.  S S S S S E.  S S S S S  
------------------------------|------------------------------|------------------------------|
------------------------------|------------------------------|------------------------------|
--5---5-5---5---5---5-5---5---|------------------------------|------------------------------|
------------------------------|--3---3-3---3---3---3-3---3---|--5---5-5---5---5---5-5---5---|


    E.  S S S S S E.  S S S S S    E.  S S S S S E.  S S S S S  3x  E.  S S S S S E  E  E  E   
|-------------------------------|-------------------------------||----------------------------|
|*------------------------------|------------------------------*||----------------------------|
|*--5---5-5---5---5---5-5---5---|------------------------------*||------7-7-7-7------8-----9--|
|-------------------------------|--5---5-5---5---5---5-5---5----||--5-----------5-6-----7-----|


  W                   E.  S E  E    E  E  E  E     E.  S E   E   Q.      S S  
-------------------|----------------------------|----------------------------|
-------------------|-----------7--7g9--7--6--7--|--------9--11--12\----------|
-------------------|--------7-------------------|------9---------------------|
--0----------------|--5---5---------------------|--7-----------------------0-|


  E  S S S E  S E  S S S E  S    E  S S S S E  E  E  Q       E.  S E  E    E  E  E  E   
------------------------------|---------------------------|----------------------------|
------------------------------|----------------7----------|-----------7--7g9--7--6--7--|
-----5-5-5---------5-5-5------|-----7-7-7-7-7-----7-------|--------7-------------------|
--3--------3----3--------3----|--5-------------------5----|--5---5---------------------|


  E.  S E   E   Q.      S S    E  S S S E  S E  S S S E  S    E  S S S E  S E  S S S E.   
----------------------------|------------------------------|-----------------------------|
--------9--11--12\----------|------------------------------|-----7-7-7-7-----------------|
------9---------------------|-----5-5-5---------5-5-5------|-------------------7-7-7-7---|
--7-----------------------0-|--3--------3----3--------3----|--5-----------0-5------------|


  E.  S S S S S E.  S S S S S    E.  S S S S S E.  S S S S S    E.  S S S S S E.  S S S S S  
------------------------------|------------------------------|------------------------------|
------------------------------|------------------------------|------------------------------|
------------------------------|--5---5-5---5---5---5-5---5---|------------------------------|
--5---5-5---5---5---5-5---5---|------------------------------|--3---3-3---3---3---3-3---3---|


  E.  S S S S S E.  S S S S S      E.  S S S S S E.  S S S S S    E.  S S S S S E.  S S S S S  3x
------------------------------||-------------------------------|-------------------------------||
------------------------------||*------------------------------|------------------------------*||
------------------------------||*--5---5-5---5---5---5-5---5---|------------------------------*||
--5---5-5---5---5---5-5---5---||-------------------------------|--5---5-5---5---5---5-5---5----||


  E.  S S S S S E  E  E  E     W                   W                   W                 
----------------------------|-------------------|-------------------|-------------------|
----------------------------|-------------------|-------------------|-------------------|
------7-7-7-7------8-----9--|-------------------|-------------------|-------------------|
--5-----------5-6-----7-----|--0----------------|--5----------------|--7----------------|


  W                   W                   E.  S E  E    E  E  E  E     E.  S E   E   Q.      S S  
-------------------|-------------------|----------------------------|----------------------------|
-------------------|-------------------|-----------7--7g9--7--6--7--|--------9--11--12\----------|
-------------------|-------------------|--------7-------------------|------9---------------------|
--3----------------|--5----------------|--5---5---------------------|--7-----------------------0-|


  E  S S S E  S E  S S S E  S    E  S S S S E  S S E  Q       E.  S E  E    E  E  E  E   
------------------------------|----------------------------|----------------------------|
-------------------5-5-5------|----------------7-7-7-------|-----------7--7g9--7--6--7--|
-----5-5-5--------------------|-----7-7-7-7----------------|--------7-------------------|
--3--------3----3--------3----|--5----------5---------5----|--5---5---------------------|


  E  S S S S S S Q    Q        E.  S S S E  E.  S S S E     E  S S S E  S E  E  E  E   
----------------------------|----------------------------|----------------------------|
----------------------------|----------------------------|-------------------------7--|
-------------9--------------|--------5-5----------5---5--|-----7-7-7-7-------7--7-----|
-----7---7-------7----7\----|--3---3-----3--3---3--------|--5-----------0-5-----------|


    E.  S S S S S E.  S S S S S    E.  S S S S S E.  S S S S S  3x  E.  S S S S S E  E  E  E   
|-------------------------------|-------------------------------||----------------------------|
|*------------------------------|------------------------------*||----------------------------|
|*--5---5-5---5---5---5-5---5---|------------------------------*||------7-7-7-7------8-----9--|
|-------------------------------|--5---5-5---5---5---5-5---5----||--5-----------5-6-----7-----|


  W                  
-------------------||
-------------------||
-------------------||
--0----------------||




Duration Legend
---------------
W - whole
H - half
Q - quarter
E - 8th
S - 16th
T - 32nd
X - 64th
. - note dotted
|-n-|  - n-tuplets


Tablature Legend
----------------
L - tied note
x - dead note
g - grace note
(n) - ghost note
> - accentuded note
NH - natural harmonic
AH - artificial harmonic
TH - tapped harmonic
SH - semi harmonic
PH - pitch harmonic
h - hammer on
p - pull off
b - bend
br - bendRelease
pb - preBend
pbr - preBendRelease
brb - bendReleaseBend
\n/ - tremolo bar dip
\n - tremolo bar dive
-/n - tremolo bar Release up
/n\ - tremolo bar inverted dip
/n - tremolo bar return
-\n - tremolo bar Release down
S - shift slide
s - legato slide
/ -  slide into from below or out of upwards
\ -  slide into from above or out of downwards
~ - vibrato
W - wide vibrato
tr - trill
TP - tremolo picking
T - tapping
S - slap
P - pop
< - fade in
^ - brush up
v - brush down





Comments


Popular Sublime tabs & chords
All You Need 1 Bass Tabs
Bad Fish Bass Tabs
Hong Kong Phooey 3 Bass Tabs
Get Out Chords
Pool Shark Chords
Burritos (Intro) Tabs
Superstar Punani 1 Tabs
Wrong Way 2 Tabs
Saw Red 2 Ukulele
Slow Ride Ukulele


Song lyrics



↑ Back to top | Tablatures and chords are parodies/interpretations of the original songs. You may use it for private study, scholarship, research or language learning purposes only
© 2014 AZChords.com Contact us | Privacy policy | DMCA | Add/correct tabs | Request tabs | Top 50 tabs