>
 >
Badfish

Badfish Guitar Tabs

Sublime - Badfish chords, tabs, tablatures, lyrics

Guitar lessons | Add/correct | Request | Top 50 tabs Artists:  A B C D E F G H I J K L M N O P Q R S T U V W X Y Z 0-9

Badfish Guitar Tabs – Sublime

CD, Sheet music, Poster

Do you like Badfish? Share with your friends now
Bass TabsBass Tabs v2Bass Tabs v3ChordsChords v2TabsUkulele
Intro
  Q=82
  A                            Bm
 4/4
  Gtr I
  Q  E S S +S  S S S  S  S E   Q  E S S +S  S S S  S  S E
|--------0-(0)---------------|-2--2-2-2-(2)-2-2-2--2------|
|-2----2-2-(2)-2-2-2--2--2-2-|-3--3-3-3-(3)-3-3-3--3--3-2-|
|-2--2-2-2-(2)-2-2-2--2--2-2-|-4--4---------4-4-4--4--4-2-|
|-2--2-4-------2-2-2--2--2-2-|-4--4-----------4-4--4--4-2-|
|-0--0----------------0----0-|-2--2----------------2--0-0-|
|----------------------------|-2--2-----------------------|
|
| Gtr II
| H         E.     S +S  S E   H         Q        +S  S E
|----------------------------|----------------------------|
|-2---------2------2-(2)-----|----------------------------|
|-2---------2------------2---|-4--------------------------|
|-2---------2----------------|-4---------4--------(4)-----|
|-0---------0----------------|-2--------------------------|
|--------------------------0-|-2----------------------2-0-|


  G                         A
  Q  E. S S S S S  S  S E   Q  E. S S  S E   S     S E
|-3--3--3-3-3-3-3--3--3---|----------------------------------|
|-3--3--3-3-3-3-3--3--3---|-2-----2-x------------------------|
|-0--0--0-0-0-0-0--0--0---|-2--2--2-x--2-2-------------------|
|-0--0--0-0-0-0-0--0--0-0-|-2--2----x----2-------------------|
|-2---------------------0-|-0--0---------0---3b-0-3b---------|
|-3-----------------------|----------------------------------|
|
| Q  E. S Q       +S  S E   H       E.     S S     S S     S
|-------------------------|----------------------------------|
|-------------------------|----------------3p2-------2-----2-|
|-0-----0-----------------|----------------------------------|
|-0--0--------------------|-2--------------------------------|
|-2-----------------------|-0-------0--------------0---------|
|-3-------3-------(3)-3-0-|----------------------------------|


  A
  Q  E S S +S  S S S  S  S E
|--------0-(0)----------------|
|-2----2-2-(2)-2-2-2--2--2-2--|
|-2--2-2-2-(2)-2-2-2--2--2-2--|
|-2--2-2-------2-2-2--2--2-2--|
|-0--0----------------0----0--|
|-----------------------------|
|
| H         E.     S +S  S E
|-----------------------------|
|------------------2-(2)------|
|-2---------2------------2----|
|-2------------------------2--|
|-0---------------------------|
|-----------------------------|


  Bm                       A   G                            A
  Q  E S S +S  S S S  S  S E   Q   E.   S S S S S  S  S E   W
|-2--2-2-2-(2)-2-2-2--2------|-3---3----3-3-3-3-3--3--3---|------|
|-3--3-3-3-(3)-3-3-3--3--3-2-|-3---3----3-3-3-3-3--3--3---|-2----|
|-4--4---------4-4-4--4--4-2-|-0---0----0-0-0-0-0--0--0---|-2----|
|-4--4-----------4-4--4--4-2-|-0---0----0-0-0-0-0--0--0-0-|-2----|
|-2--2----------------2--0-0-|-2------------------------0-|-0----|
|-2--2-----------------------|-3--------------------------|------|
|
| Q  Q      E.     S +S  S E   Q  +E  S S S S S S +S  S E   W
|------------------2-(2)-----|-3--(3)---------------------|------|
|----------------------------|-3--(3)-----------0-(0)-----|------|
|-4--------------------------|-0--(0)---------------------|-2----|
|-4--4------4----------------|-0--(0)---0-----0-------0---|-2----|
|-2--2-------------------2-0-|-2--(2)-----0h2-----------0-|-0----|
|-2--------------------------|-3--(3)-3-------------------|-0----|


 Verse
  A                     Bm                  G
  Gtr III
  E  E E  E E  E E  E   E E E E S S E E E   E E E E E E S S E
|----9----9----9----9-|---7---7-x-x-7---7-|-------------------|
|---10---10---10---10-|---7---7-x-x-7---7-|---8---8---8---x-8-|
|----9----9----9----9-|---7---7-x-x-7---7-|---7---7---7---x-7-|
|---------------------|-------------------|---9---9---9---x-9-|
|---------------------|-------------------|-------------------|
|---------------------|-------------------|-------------------|


    A                     A                     Bm
  E  E E  E S S  E E  E   E  E E  E E  E E  E   E E E E E E E E
|-----------------------|---------------------|---7---7---7---7-|
|---10---10-x-x-10---10-|---10---10---10---10-|---7---7---7---7-|
|----9----9-x-x--9----9-|----9----9----9----9-|-------7---7---7-|
|-----------------------|---------------------|---------9-------|
|-----------------------|---------------------|-----------------|
|-----------------------|---------------------|-----------------|


  G                   A                        A
  E E E E E E S S E    E  S S E  E E  E E  E    +E   S S S S  E E  E E  E
|-------------------|-----------------9----9-|--(9)--9-x-x-x--9----9----9--|
|---8---8---8---x-8s|=10-10-x---10---10---10-|-(10)-10-x-x-x-10---10---10--|
|---7---7---7---x-7s|==9--9-x----9----9----9-|--(9)--9-x-x-x--9----9----9--|
|---9---9---9---x-9s|=11-11----------11---11-|-(11)-11---------------------|
|-------------------|------------------------|-----------------------------|
|-------------------|------------------------|-----------------------------|
|
| Gtr IV
| W                    W                         H              Q    E  E
|-------------------|------------------------|-----------------------------|
|-------------------|------------------------|-----------------------------|
|-------------------|------------------------|--------------------------9--|
|-------------------|------------------------|-----------------------------|
|-------------------|------------------------|-----------------------------|
|-------------------|------------------------|-----------------------------|


  BmII                       G                   A
  E E  E  E   E S S +S  E.   E E E E S S E E E    E  E E  E E  E Q
|--------------------------|-------------------|-----9----9----9----||
|---7-----7-----7-7-(7)-7--|---8---8---x-8---8s|=10-10---10---10----||
|---7-----7-----7-7-(7)----|---7---7---x-7---7s|==9--9----9----9----||
|--------------------------|---9---9---x-9---9s|=11-----------------||
|--------------------------|-------------------|--------------------||
|--------------------------|-------------------|--------------------||
|
| Q   +E  S S E E   +S  E.   W                    W
|--------------------------|-------------------|--------------------||
|-7---(7)-7h8p7-7---(7)-7--|-------------------|--------------------||
|--------------------------|-------------------|--------------------||
|--------------------------|-------------------|--------------------||
|--------------------------|-------------------|--------------------||
|--------------------------|-------------------|--------------------||


 Chorus
  Dopen               A                         Dopen
  E E E S S E E E E   E  E E  E  S  S  E E  E    E  E  E  E E E E E
|-------------------|---------9-----x--9----9-|---------------------|
|---7---7-x---7---7-|---10---10-----x-10---10-|-----7-----7---7---7-|
|---7---7-x---7---7-|----9----9-----x--9----9-|-----7-----7---7---7-|
|---7---7-x---7---7-|--------11-------11---11-|-----7-----7---7---7-|
|-------------------|-------------------------|---------------------|
|-------------------|-------------------------|---------------------|
|
|                     /
| W                   H         +H              +Q    +H        Q
|-------------------|-5---------(5)-----------|-(5)-----------------|
|-3-----------------|-5---------(5)-----------|-(5)---(5)-----------|
|-2-----------------|-6---------(6)-----------|-(6)-----------------|
|-0-----------------|-7---------(7)-----------|-(7)-----------------|
|-------------------|-------------------------|---------------------|
|-------------------|-------------------------|---------------------|


  A                       Dopen             A
  E  E E  E S S  E E  E   E E E E E E E E   E  E E  E E  E E  E
|----9----9---x--9----9-|---5---5---------|----9----9----9----9-|
|---10---10---x-10---10-|---7---7---7---7-|---10---10---10---10-|
|----9----9---x--9----9-|---7---7---7---7-|----9----9----9----9-|
|---11---11-----11---11-|-----------7---7-|---11---11---11---11-|
|-----------------------|-----------------|---------------------|
|-----------------------|-----------------|---------------------|
|
| H         Q      E  E   E E Q   H         W
|---------------------0-|-2---------------|---------------------|
|-----------------------|-3---------------|---------------------|
|-----------------------|-2---------------|---------------------|
|-----------------------|-----------------|---------------------|
|-----------------------|-----------------|---------------------|
|-----------------------|-----------------|---------------------|


  Dopen            E(type 2)
  E E E E E E Q    H    +E  E Q
|----------------|---------------||
|---7---7---7----|-9----(9)------||
|---7---7---7----|-9----(9)------||
|---7---7---7----|-9----(9)------||
|----------------|-7----(7)------||
|----------------|---------------||
|
| Q   Q   H        H    +E  E Q
|----------------|-0----(0)------||
|-3--------------|-0----(0)------||
|----------------|-1----(1)------||
|----------------|-2----(2)------||
|----------------|---------------||
|----------------|---------------||


 Verse
  A                     Bm                  G
  Gtr III
  E  E E  E E  E E  E   E E E E S S E E E   E E E E E E S S E
|----9----9----9----9-|---7---7-x-x-7---7-|-------------------|
|---10---10---10---10-|---7---7-x-x-7---7-|---8---8---8---x-8-|
|----9----9----9----9-|---7---7-x-x-7---7-|---7---7---7---x-7-|
|---------------------|-------------------|---9---9---9---x-9-|
|---------------------|-------------------|-------------------|
|---------------------|-------------------|-------------------|


    A                     A                     Bm
  E  E E  E S S  E E  E   E  E E  E E  E E  E   E E E E E E E E
|-----------------------|---------------------|---7---7---7---7-|
|---10---10-x-x-10---10-|---10---10---10---10-|---7---7---7---7-|
|----9----9-x-x--9----9-|----9----9----9----9-|-------7---7---7-|
|-----------------------|---------------------|---------9-------|
|-----------------------|---------------------|-----------------|
|-----------------------|---------------------|-----------------|


  G                   A
  E E E E E E S S E    E  S S E  E  E   E   E    E
|-------------------|-------------------9--------9-|
|---8---8---8---x-8s|=10-10-x---10-----10-------10-|
|---7---7---7---x-7s|==9--9-x----9------9--------9-|
|---9---9---9---x-9s|=11-11------------11-------11-|
|-------------------|------------------------------|
|-------------------|------------------------------|
|
| Gtr IV
| W                    E  S S Q    +E   S S S S  E
|-------------------|------------------------------|
|-------------------|-----2h3p2----(2)--2h3p2------|
|-------------------|-------------------------2----|
|-------------------|----------------------------2-|
|-------------------|------------------------------|
|-------------------|------------------------------|


  A
   +E   S S S S  E E  E E  E
|--(9)--9-x-x-x--9----9----9-|
|-(10)-10-x-x-x-10---10---10-|
|--(9)--9-x-x-x--9----9----9-|
|-(11)-11--------------------|
|----------------------------|
|----------------------------|
|
|  +E   E   Q      H
|----------------------------|
|----------------------------|
|----------------------------|
|--(2)-----------------------|
|----------------------------|
|----------------------------|


  Dopen                      G                 A
  E E E   E  E  S S +S  E.   E E E E E E E E   E  E E  E E  E E  E
|--------------------------|-----------------|---------------------||
|---7-----7-----7-7-(7)-7--|---8---8---8---8-|---10---10---10---10-||
|---7-----7-----7-7-(7)----|---7---7---7---7-|----9----9----9----9-||
|--------------------------|---9---9---9---9-|---11---11---11---11-||
|--------------------------|-----------------|---------------------||
|--------------------------|-----------------|---------------------||
|
| E E S S E +E  E    Q       W                 W
|-2-2---x-2-(2)-2----------|-----------------|---------------------||
|-3-3---x-3-(3)-3----------|-----------------|---------------------||
|-2-2---x-2-(2)-2----------|-----------------|---------------------||
|--------------------------|-----------------|---------------------||
|--------------------------|-----------------|---------------------||
|--------------------------|-----------------|---------------------||


  Dopen             A                     Dopen
  E E E E E E E E   E  E E  E E  E E  E   E E E E E E E E
|-----------------|----9----------------|-----------------|
|---7---7---7---7-|---10---10---10---10-|---7---7---7---7-|
|---7---7---7---7-|----9----9----9----9-|---7---7---7---7-|
|---7---7---7---7-|---11---11---11---11-|---7---7---7---7-|
|-----------------|---------------------|-----------------|
|-----------------|---------------------|-----------------|


 Chorus
  A                          Dopen             A
  S S  E E  E S S  E E  E    E E E E E E E E   E  E E  E E  E E  E
|-x-x--9----9-x-x--9----9\-|-----------------|----9----9----9----9-|
|-x-x-10---10-x-x-10---10\-|-7-7---7---7---7-|---10---10---10---10-|
|-x-x--9----9-x-x--9----9\-|-7-7---7---7---7-|----9----9----9----9-|
|-----11---11-----11-------|---7---7---7---7-|---11---11---11---11-|
|--------------------------|-----------------|---------------------|
|--------------------------|-----------------|---------------------|


  Dopen             E(type 2)
  E E E E E E E E   H    +E  E Q
|-----------------|---------------||
|---7---7---7---7-|-9----(9)------||
|---7---7---7---7-|-9----(9)------||
|---7---7---7---7-|-9----(9)------||
|-----------------|-7----(7)------||
|-----------------|---------------||


 Interlude
  A                          BmII
  Gtr I
  E. S +e. S  S  S E S S E   E. S +E  S S +S  S E   S S S S
|----------------------0-0-|-2--------2-2-(2)-2-2---2-2-0-0-|
|-2--------2--2------2-2-2-|-3--3-(3)-3-3-(3)-3-3---3-3-3-3-|
|-2--2-(2)-2--2--2---2-2-2-|-4--4-(4)-4-4-(4)-4-----3-3-4-4-|
|-2--2-(2)-2--2--2-2-2-2-2-|-4--4-(4)-4-4-(4)-------4-4-4-4-|
|-0----------------0-0-0-0-|-2--2-(2)---------------2-2-0-0-|
|--------------------------|-2------------------------------|
|
| Gtr II
| Q     E. S +Q      E   E   Q.       E    E    S S E   E
|--------------------------|----------2---------------------|
|----------2-(2)-----------|---------------3----------------|
|-2-----2------------------|--------------------4-----------|
|-2-----2------------------|-4--------------------4---------|
|-0-----0------------0---0-|-2----------------------2---0---|
|--------------------0---0-|-2------------------------------|


  G
  Q  E. S E   S S S S e      W
|-3--3--3-3---3-3-3-3-3---|--0-----|
|-3--3--3-3---3-3-3-3-3---|--2-----|
|-0--0--0-0---0-0-0-0-0---|--2-----|
|-0--0--0-0---0-0-0-0-0---|--2-----|
|-x--x--x-x---x-x-x-x-x---|--0-----|
|-3--3--3-3---3-3-3-3-3---|--------|
|
| Q  E. S S S S S S E   S   +W
|-------------3-----------|--------|
|-----------------3-------|--------|
|-----------------------2-|-(2)----|
|----0----0-----0---0---2-|-(2)----|
|----x----0-2-----------0-|-(0)----|
|-3--3--3-----------------|--------|


 Guitar Solo
  A                           Bm
  S Q.         S  H           H          Q    +Q
|---------------------------|-----------------------|
|---------------------------|-----------------------|
|-4h6----------4-h6---------|-4b6r======(4)---(4)---|
|---------------------------|-----------------------|
|---------------------------|-----------------------|
|---------------------------|-----------------------|
|
| Gtr III
| E     E E  E    E  E E  E   E   E E E  E  E  E  E
|-------9----9-------9----9-|-----7---7-----7-----7-|
|------10---10------10---10-|-----7---7-----7-----7-|
|-------9----9-------9----9-|-----7---7-----7-----7-|
|------11---11------11---11-|-----9---9-----9-----9-|
|---------------------------|-----------------------|
|---------------------------|-----------------------|


  Dopen
  S E   S +S  E   S S S S S S S S S
|------------------------------------|
|------------------------------------|
|-------2-(2)-4-----1h2p1------------|
|-2h4---------------------2h4--------|
|-----------------------------2-2p0h=|
|------------------------------------|
|
| E   E    E    E   E   E   E   E
|------------------------------------|
|-----7---------7-------7-------7----|
|-----7---------7-------7-------7----|
|-----7---------7-------7-------7----|
|------------------------------------|
|------------------------------------|


  A
  S E.    +H.
|--------------------------|
|--------------------------|
|--------------------------|
|--------------------------|
|-2s4-----(4)--------------|
|--------------------------|
|
| Gtr III
| E     E  E   E E  E E  E
|-------9------9----9----9-|
|------10-----10---10---10-|
|-------9------9----9----9-|
|------11-----11---11---11-|
|--------------------------|
|--------------------------|


  A                             Dopen
                                |--3--|
  +E   E S E    S +Q.       E   E E   E H.
|-----------------------------|----------------------|
|-----------------------------|----------------------|
|-----------------------------|-2p1------------------|
|--------2h4----4-(4)-------2-|-------2s4------------|
|-(4)--4----------------------|----------------------|
|-----------------------------|----------------------|
|
|  E   E E    E    E   E E  E   E   E   E  E E E E E
|------9------9--------9----9-|----------------------|
|-----10-----10-------10---10-|-----7------7---7---7-|
|------9------9--------9----9-|-----7------7---7---7-|
|-----11-----11-------11---11-|-----7------7---7---7-|
|-----------------------------|----------------------|
|-----------------------------|----------------------|


  Dopen                         A                     Dopen
  E S +E    E   +E    E.  E E   W                      E E Q   H
|-5---------------------------|---------------------|--------------------|
|---7-(7)---------------------|-2S==================|=14-----------------|
|-----------6---(6)---4S==2-4-|-2S==================|=14-----------------|
|-----------------------------|-2S==================|=14-----------------|
|-----------------------------|---------------------|--------------------|
|-----------------------------|---------------------|--------------------|
|
| E E     E   E     E   E E E   E  E E  E E  E E  E    E E E E S S E E E
|-----------------------------|----9----------------|--------------------|
|---7---------7---------7---7-|---10---10---10---10-|--7-7---7-x-x-7---7-|
|---7---------7---------7---7-|----9----9----9----9-|--7-7---7-x-x-7---7-|
|---7---------7---------7---7-|---11---11---11---11-|--7-7---7-x-x-7---7-|
|-----------------------------|---------------------|--------------------|
|-----------------------------|---------------------|--------------------|


 Chorus
    A                   Dopen             A
  E  E E  E E  E E  E   E E E E E E E E   E  S S S S  S S S S  S S S S  S S
|----9----9----9----9-|-----------------|----9-x-x-x--9-x-x-x--9-xx-x--9-x--|
|---10---10---10---10-|-7-7---7---7---7-|---10-x-x-x-10-x-x-x-10-xx-x-10-x--|
|----9----9----9----9-|-7-7---7---7---7-|----9-x-x-x--9-x-x-x--9-xx-x--9-x--|
|---11---11---11---11-|---0---0---0---0-|------------------------------------
|---------------------|-----------------|------------------------------------
|---------------------|-----------------|------------------------------------


  Dopen             A                     Dopen            E(type 2)
  E E E E E E E E   E  E E  E E  E E  E   E E E E E E Q    H    +H
|-----------------|----9----9----9----9-|----------------|-------------*|
|-----------------|---10---10---10---10-|---7---7---7----|-9----(9)----*|
|---7---7---7---7-|----9----9----9----9-|---7---7---7----|-9----(9)----*|
|---7---7---7---7-|---11---11---11---11-|---7---7---7----|-9----(9)----*|
|-7-7---7---7---7-|---------------------|----------------|-7----(7)----*|
|-----------------|---------------------|----------------|-------------*|





Comments


Popular Sublime tabs & chords
Don't Push 1 Bass Tabs
Falling Idols Chords
Saw Red 1 Chords
Zimbabwe Chords
Chick On My Tip Tabs
Roots Of Creation Tabs
Santeria Unplugged Tabs
What I Got 9 Tabs
Little District Ukulele
Mary Ukulele


Song lyrics



↑ Back to top | Tablatures and chords are parodies/interpretations of the original songs. You may use it for private study, scholarship, research or language learning purposes only
© 2014 AZChords.com Contact us | Privacy policy | DMCA | Add/correct tabs | Request tabs | Top 50 tabs