» » »

Strait Up, Sad Air Tabs (ver.3)

Artists:  A B C D E F G H I J K L M N O P Q R S T U V W X Y Z # 

Sad Air Tabs (ver.3)

Strait Up Tabs
Rating:
0/5 (0 votes)
Sad Air lessons Tabs too difficult? Try these video lessons and learn fast
                
Drop D

Gtr1:  ( 00:00 --> 01:33 )
-----0h1-1-1-1---0------0h1-1-1-1---3------0h1-1-1-1---0------------1-------
---0-----------0------0-----------0------0-----------0------0-3h4-0---------

-----0h1-1-1-1---0------0h1-1-1-1---3------0h1-1-1-1---0-----------1-------3---
---0-----------0------0-----------0------0-----------0-------0-3h4---3-1-5-----

---0h1--1p0-------0---------------------------
----------------------------------------------
--------------2h3---2-----------0-------------
----------------------------2h3---2-3-2-------
----------------------------------------5-5---
----------------------------------------------

-------------------------------------------------------------
----------------------5--------------------------------------
---------5-------------------------5------------------3-2----
-----2h3---3-2----2h3---3-2----2h3---3-2-----3h5----5--------
----------------3--------------------------1-----------------
---0-------------------------0-------------------5-----------

Gtr2:  ( 01:13 --> 01:55 )
--------------------------------------------------------------
-----------------------5h6-5---------------------5h6-5--------
------------------------------3-2-3/5-3--2h3p2----------2-5---
---5-7-7-7---7-8-7--------------------------------------------
-----------6--------------------------------------------------
--------------------------------------------------------------

-------------------------------
---5h6p5-----------------------
--------------3—2-------2-----
----------3-5------3---3---2---
-------------------------------
-------------------------------

----------------------------1-------------------------------------------
-------------2------------2-------------------2---------------------7---
---3-2---0-3----------3-0-----------3-2---0-3-------------3-------------
------------------0-------------0--------------------0-------5----------
------------------0-------------0--------------------0------------------
            

comments powered by Disqus
↑ Back to top | Strait Up Tabs for Sad Air. Lyrics for acoustic guitar and electric guitar. Tablatures and chords are parodies/interpretations of the original songs. You may use it for private study, scholarship, research or language learning purposes only