» » »

Sad Air Tabs (ver.2)

Artists:  A B C D E F G H I J K L M N O P Q R S T U V W X Y Z # 

Sad Air Tabs (ver.2)

Strait Up
Rating:
0/5 (0 votes)

Hard to play? Try these video lessons and learn fast.
                Dropped D tuning



e:--------------------------------------------------------------------------
B:--------------------------------------------------------------------------
G:--------------------------------------------------------------------------
D:--------------------------------------------------------------------------
A:---------------0h2--2--2-----0--------------------------------------------
D:------0----0--------------0------0---0-0----------------------------------

e:--------------------------------------------------------------------------
B:--------------------------------------------------------------------------
G:--------------------------------------------------------------------------
d:--------------------------------------------------------------------------
A:----------0h2--2--2-----2/3-----------------------------------------------
D:----0---0------------0--------0----0-0------------------------------------

e:--------------------------------------------------------------------------
B:--------------------------------------------------------------------------
G:--------------------------------------------------------------------------
d:--------------------------------------------------------------------------
A:----------0h2--2-2----0---------------------------------------------------
D:---0---0------------0----0---0-0------------------------------------------

e:--------------------------------------------------------------------------
B:--------------------------------------------------------------------------
G:--------------------------------------------------------------------------
d:---------------------------------3\2-----2--------------------------------
A:-----------------------------0--------------------------------------------
D:--------------0--0--3b---0------------------------------------------------

Repeat the first three licks, and then:

e:--------------------------------------------------------------------------
B:--------------------------------------------------------------------------
G:--------------------------------------------------------------------------
d:-------------3------------1-----------------------------------------------
A:----------------------1---------------------------------------------------
D:--0--0---3-------1--------------------------------------------------------


That's all I can figure out for now, I'll submit the rest once I figure it out.
Have fun.
            
Hard to play? Try these video lessons and learn fast. | Correct




comments powered by Disqus
↑ Back to top | Tablatures and chords are parodies/interpretations of the original songs. You may use it for private study, scholarship, research or language learning purposes only