» » »

Strait Up, Sad Air Tabs (ver.1)

Artists:  A B C D E F G H I J K L M N O P Q R S T U V W X Y Z # 

Sad Air Tabs (ver.1)

Strait Up Tabs
 Rating:
4/5 (4 votes)
Sad Air lessons Tabs too difficult? Try these video lessons and learn fast
                D drop
(^!^)this is an abredged version for one guit 
A
|-------------------------------------------------------------------|
|--------------------------------------------------------------6-5--|
|------------------------------------------------------------3------|
|-/7h888p7---7-----/7h888p7-/-10----/7h888p7---7----3(1/4)-0---3-2--|
|-------------------------------------------------------------------|
|--0-------0----00----------0----00----------0---00-----------------|

|------------------------------------------------------------------|
|------------------------------------------------------------------|
|-------------------------------------------------------2------5---|
|---/7h888p7---7-----/7h888p7-/-10----/7h888p7---7----3---1--5---5-|
|------------------------------------------------------------------|
|-00---------0----00----------0----00----------0---00--------------|

|-------------------------------------------------------------------|
|--------------------------------------------------------------6-5--|
|------------------------------------------------------------3------|
|-/7h888p7---7-----/7h888p7-/-10----/7h888p7---7----3(1/4)-0---3-2--|
|-------------------------------------------------------------------|
|--0-------0----00----------0----00----------0---00-----------------|

|-----------------------------------------|
|-5b-5r-----3-----------------------------|
|-------2h3---2---------------------------|
|-----------------------------------------|
|-----------------/555555-5/777-7h8p7-5---|
|-----------------------------------------|

Central part (let ring the chords)
|-----------------------0--------------------------------------|
|-----3-------------3-----3-------3---------------------8/11-9-|
|-----5-------------0-------0-----5----------------------------|
|-----3---3---3---2---------------3---3---3-------3h5---5-/8-7-|
|---0---7---7---3---------------0---7---7---1--/3--------------|
|-0---------------------------0-----------------------5--------| 

then repeat A w/some additions between the holes
|-/7777-7/8\7-|
|-------------|
|-------------| 

|-----------------|
|-/6p5------------|
|--------3p2-/5p3-|
|-----------------|
|-----------------|
|-----------------| 

just an arrangement..try to find the whole experience

ending waves::
|-------------------------------------------------------------|
|----3-----------------------6-------6-----10-----------6-----|
|----5-----2--7(hn)---------------------7--10--------------7--|
|----3-----0-----------3-------------7------------3-----------|
|-------------------------5-------------5------------5--------|
|-0-----0-----------0-------------0------------0--------------|
            
Submit corrections

comments powered by Disqus
↑ Back to top | Strait Up Tabs for Sad Air. Lyrics for acoustic guitar and electric guitar. Tablatures and chords are parodies/interpretations of the original songs. You may use it for private study, scholarship, research or language learning purposes only