>
 >
Reborn 4

Reborn 4 Guitar Tabs

Stone  Sour - Reborn 4 chords, tabs, tablatures, lyrics

Guitar lessons | Add/correct | Request | Top 50 tabs Artists:  A B C D E F G H I J K L M N O P Q R S T U V W X Y Z 0-9

Reborn 4 Guitar Tabs – Stone Sour

CD, Sheet music, Poster

Do you like Reborn 4? Share with your friends now
Bass TabsTabsTabs v2Tabs v3Tabs v4Tabs v5
-------------------------------------------------------------------------------
-------------------------------------------------------------------------------

Tuning: B-F#-B-E-G#-C#

Intro:
C#|-------------------------------------------------------------|
G#|-------------------------------------------------------------|
E |-------------------------------------------------------------|
B |-------------------------------------------------------------|
F#|-222222-10-9-10-2-2-2-5~-5/8-222222-10-9-10-5-5-5-8-8-8-7-7--|
B |-222222-10-9-10-2-2-2-5~-5/8-222222-10-9-10-5-5-5-8-8-8-7-7--|
PM........         .....        ......         ................

C#|----------------------------------------------------------|
G#|------------------------------------------------6-------5-|
E |----------------------------------------------------------|
B |--------------------------------------------5h8---8-5h7---|
F#|-222222-10-9-10-2-2-2-5~-5/8-222222-10-9-10---------------|
B |-222222-10-9-10-2-2-2-5~-5/8-222222-10-9-10---------------|
PM........         .....        ......

Verse: (Slight palm mute throughout)
C#|------------------------------------------------------------------------------------|
G#|------------------------------------------------------------------------------------|
E |-9-9-12-12-11-11-9-9-11-11-9-9-7-7-9-9-7-7-12-12-11-11-9-9-12-12-12-12-11-11-11-11--|
B |------------------------------------------------------------------------------------|
F#|------------------------------------------------------------------------------------|
B |------------------------------------------------------------------------------------|

Pre-Chorus:
C#|--------------------------------------------------------------------|
G#|--------------------------------------------------------------------|
E |--------------------------------------------------------------------|
B |--------------------------------------------------------------------|
F#|--------------------------------------------------------------------|
B |-9-9-9-9-10-9-8-9-9-9-9-9-13-12-10-9-9-9-9-10-9-8-9-9-9-9-9-9-10-11-|

C#|--------------------------------------------------------------------|
G#|--------------------------------------------------------------------|
E |--------------------------------------------------------------------|
B |--------------------------------------------------------------------|
F#|----------------------------------------------------9-9-9-9-9-9-9-9-|
B |-9-9-9-9-10-9-8-9-9-9-9-9-13-12-10-9-9-9-9-10-9-8-9-9-9-9-9-9-9-9-9-|
PM                                                     ...............

Chorus:
C#|-------x-x-x-x-------x-x-x-x-------x-x-x-x--------------------|
G#|-------x-x-x-x-------x-x-x-x-------x-x-x-x--------------------|
E |-------x-x-x-x-------x-x-x-x-------x-x-x-x--------------------|
B |-2-3-2-x-x-x-x-2-3-2-x-x-x-x-2-3-2-x-x-x-x--------------------|
F#|-2-3-2---------2-3-2---------2-3-2----------------------------|
B |-2-3-2---------2-3-2---------2-3-2---------12-0-10-0-9-0-7-0--|

Pre-Verse:
C#|--------------------------------------------------------------|
G#|--------------------------------------------------------------|
E |--------------------------------------------------------------|
B |--------------------------------------------------------------|
F#|-2-2-2-2-10-9-10-2-2-2-5~-5/8-2-2-2-2-10-9-10-5-5-5-8-8-8-7-7-|
B |-2-2-2-2-10-9-10-2-2-2-5~-5/8-2-2-2-2-10-9-10-5-5-5-8-8-8-7-7-|
PM.........         .....        .......         ................

C#|------------------------------------------------------------|
G#|--------------------------------------------------6-------5-|
E |------------------------------------------------------------|
B |----------------------------------------------5h8---8-5h7---|
F#|-2-2-2-2-10-9-10-2-2-2-5~-5/8-2-2-2-2-10-9-10---------------|
B |-2-2-2-2-10-9-10-2-2-2-5~-5/8-2-2-2-2-10-9-10---------------|
PM.........         .....        .......

Verse: (Slight palm mute throughout)
C#|------------------------------------------------------------------------------------|
G#|------------------------------------------------------------------------------------|
E |-9-9-12-12-11-11-9-9-11-11-9-9-7-7-9-9-7-7-12-12-11-11-9-9-12-12-12-12-11-11-11-11--|
B |------------------------------------------------------------------------------------|
F#|------------------------------------------------------------------------------------|
B |------------------------------------------------------------------------------------|

Pre-Chorus:
C#|--------------------------------------------------------------------|
G#|--------------------------------------------------------------------|
E |--------------------------------------------------------------------|
B |--------------------------------------------------------------------|
F#|--------------------------------------------------------------------|
B |-9-9-9-9-10-9-8-9-9-9-9-9-13-12-10-9-9-9-9-10-9-8-9-9-9-9-9-9-10-11-|

C#|--------------------------------------------------------------------|
G#|--------------------------------------------------------------------|
E |--------------------------------------------------------------------|
B |--------------------------------------------------------------------|
F#|----------------------------------------------------9-9-9-9-9-9-9-9-|
B |-9-9-9-9-10-9-8-9-9-9-9-9-13-12-10-9-9-9-9-10-9-8-9-9-9-9-9-9-9-9-9-|
PM                                                     ...............

Chorus:
C#|-------x-x-x-x-------x-x-x-x-------x-x-x-x--------------------|
G#|-------x-x-x-x-------x-x-x-x-------x-x-x-x--------------------|
E |-------x-x-x-x-------x-x-x-x-------x-x-x-x--------------------|
B |-2-3-2-x-x-x-x-2-3-2-x-x-x-x-2-3-2-x-x-x-x--------------------|
F#|-2-3-2---------2-3-2---------2-3-2----------------------------|
B |-2-3-2---------2-3-2---------2-3-2---------12-0-10-0-9-0-7-0--|

Refrain:
C#|---------------------------------------------------------|
G#|---------------------------------------------------------|
E |---------------------------------------------------------|
B |-2~~-5~~-8~~-2~~-5~~-8~~-2~~-5~~-8~~---------------------|
F#|-2~~-5~~-8~~-2~~-5~~-8~~-2~~-5~~-8~~---------------------|
B |-2~~-5~~-8~~-2~~-5~~-8~~-2~~-5~~-8~~-14-12-10-9-10-9-7-9-|

Outro:
C#|-------------------------------------------------------------|
G#|-------------------------------------------------------------|
E |-------------------------------------------------------------|
B |-------------------------------------------------------------|
F#|-222222-10-9-10-2-2-2-5~-5/8-222222-10-9-10-5-5-5-8-8-8-7-7--|
B |-222222-10-9-10-2-2-2-5~-5/8-222222-10-9-10-5-5-5-8-8-8-7-7--|
PM........         .....        ......         ................

C#|----------------------------------------------------------|
G#|------------------------------------------------6-------5-|
E |----------------------------------------------------------|
B |--------------------------------------------5h8---8-5h7---|
F#|-222222-10-9-10-2-2-2-5~-5/8-222222-10-9-10---------------|
B |-222222-10-9-10-2-2-2-5~-5/8-222222-10-9-10---------------|
PM........         .....        ......

| /  slide up
| \  slide down
| h  hammer-on
| p  pull-off
| ~  let ring
| *  harmonic
| x  Mute note
===============================================================================
 Thanks to Pricedon 977 for helping





Comments


Popular Stone Sour tabs & chords
Hesitate Bass Tabs
Hesitate 2 Bass Tabs
Say Youll Haunt Me Chords
Simple Woman Chords
Threadbare Chords
30-30/150 1 Tabs
Choose 1 Tabs
Reborn 2 Tabs
Socio Tabs
Take A Number Tabs


Song lyrics



↑ Back to top | Tablatures and chords are parodies/interpretations of the original songs. You may use it for private study, scholarship, research or language learning purposes only
© 2014 AZChords.com Contact us | Privacy policy | DMCA | Add/correct tabs | Request tabs | Top 50 tabs