>
 >
Reborn 1

Reborn 1 Guitar Tabs

Stone  Sour - Reborn 1 chords, tabs, tablatures, lyrics

Guitar lessons | Add/correct | Request | Top 50 tabs Artists:  A B C D E F G H I J K L M N O P Q R S T U V W X Y Z 0-9

Reborn 1 Guitar Tabs – Stone Sour

CD, Sheet music, Poster

Do you like Reborn 1? Share with your friends now
Bass TabsTabsTabs v2Tabs v3Tabs v4Tabs v5
-------------------------------------------------------------------------------
                               "Reborn" --- Stone Sour
-------------------------------------------------------------------------------




Tuning: Drop Db === Db Ab Db Gb Bb Eb (low to high)

Key: F Major === F G A Bb C D E 


Legend:

... = palm muted
h = hammer on
p = pull off
b = bend
__ = hold bend
() = note note picked / bent note back to normal
/ = slide up
\ = slide down
h/ = pick once
p\ = pick once
h/p\ = pick once
p\h/ = pick once
.5 = half step bend
1 = whole step bend
1.5 = whole step and a half bend
! = tremelo pick
x = muffled string
* = harmonic
~ = vibrato / ring
x/x/ = pickslide


=============================
Intro:

Guitars 1 and 2:
eb|---------------------------------------------------------------------------------------|
Bb|---------------------------------------------------------------------------------------|
Gb|---------------------------------------------------------------------------------------|
Db|----------3---3-----3~(3)/6-----------3---3--------------------------3---3-----3~(3)/6-|
Ab|----------1p0-1-----3~(3)/6-----------1p0-1-3-3-3-6-6-6-5-5----------1p0-1-----3~(3)/6-|
Db|-00000000-------000-3~(3)/6--00000000-------3-3-3-6-6-6-5-5-00000000-------000-3~(3)/6-|
    ........       ...          ........       ............... ........       ...

==============================
Guitar 1:
eb|-------------------------------|
Bb|-------------------------------|
Gb|-------------------------------|
Db|----------3---3----------------|
Ab|----------1p0-1---3/6--------5-|
Db|-00000000-------3-----6\3h/5---|
    ........

Guitar 2:
eb|-------------------------------|
Bb|-------------------------------|
Gb|--------------------3--------7-|
Db|----------3---3---5---6\3h/5---|
Ab|----------1p0-1-3--------------|
Db|-00000000----------------------|
    ........

End of Intro.
=============================
Verse 1:

Guitar 1:
eb|---------------------------------------------------------------------|
Bb|---------------------------------------------------------------------|
Gb|-7-7-7-7-7-7-7-7-7-7-7-7-7-7-7-7-5-5-5-5-5-5-5-5-10-10-10-10-9-9-9-9-|
Db|-x-x-x-x-x-x-x-x-x-x-x-x-x-x-x-x-x-x-x-x-x-x-x-x--x--x--x--x-x-x-x-x-| x4
Ab|-5-5-5-5-5-5-5-5-5-5-5-5-5-5-5-5-3-3-3-3-3-3-3-3--8--8--8--8-7-7-7-7-|
Db|---------------------------------------------------------------------|

Guitar 2:
eb|-----------------------------------------------------------------|
Bb|-----------------------------------------------------------------|
Gb|-----7-7-----------------------------7-7-------------------------|
Db|---------8-8-5-5-7-7---------------------8-8-5-5-7-7-------------| x4
Ab|-5-5-----------------8-8-7-7-8-8-5-5-----------------8-8-7-7-8-8-|
Db|-----------------------------------------------------------------|

============================
Guitars 1 and 2:
eb|-----------------------------------------------------------------|
Bb|-----------------------------------------------------------------|
Gb|-----------------------------------------------------------------|
Db|-----------------------------------------------------------------|
Ab|-------------------------5-5-3-3---------------------------------|
Db|-5h7-7-7-8p7-5h7-5h7-7-8---------5h7-7-7-8-7-5-7-5h7-7-7-5-5-8-8-|

============================
Guitars 1 and 2:
eb|-----------------------------------------------------------------|
Bb|-----------------------------------------------------------------|
Gb|-----------------------------------------------------------------|
Db|-----------------------------------------------------------------|
Ab|-------------------------5-5-3-3---------------------------------|
Db|-5h7-7-7-8p7-5h7-5h7-7-8---------5h7-7-7-8-7-5-7-7-7-7-7-7-7-7-7-|

End of Verse 1.
============================
Pre Chorus 1:

Guitar 1:
eb|---------------------------------------------------------------------------------|
Bb|---------------------------------------------------------------------------------|
Gb|---------------------------------------------------------------------------------|
Db|-0-0--0------------------------------------0-0--0--------------------------------| x2
Ab|-0-0--0------------------------------------0-0--0--------------------------------|
Db|-0-0--0--2*-2*-2*-2*--0-1--0--2*-2*-2*-2*--0-0--0--2*-2*-2*-2*--10-7-8-5-7-3-5-3-|

Guitar 2:
eb|---------------------------------------------------------------------------------|
Bb|---------------------------------------------------------------------------------|
Gb|---------------------------------------------------------------------------------|
Db|-0-0--0------------------------------------0-0--0--------------------------------| x2
Ab|-0-0--0------------------------------------0-0--0--------------------------------|
Db|-0-0--0--3*-3*-3*-3*--0-1--0--3*-3*-3*-3*--0-0--0--3*-3*-3*-3*--10-7-8-5-7-3-5-3-|

===========================
Break 1:

Guitars 1 and 2:
eb|------------------------------------------------------------------------------------|
Bb|------------------------------------------------------------------------------------|
Gb|------------------------------------------------------------------------------------|
Db|------------------3~(3)/6---------------------------------------------------3~(3)/6-|
Ab|------------------3~(3)/6----------------3-3-3-6-6-6-5-5--------------------3~(3)/6-|
Db|-0000-8p7p0-8-000-3~(3)/6--0000-8p7p0-8--3-3-3-6-6-6-5-5--0000-8p7p0-8--000-3~(3)/6-|
    ....         ...          ....          ...............  ....          ...

===========================
Guitar 1:
eb|------------------------------|
Bb|------------------------------|
Gb|----------------5h/8--------7-|
Db|--------------3------6\3h/5---|
Ab|------------------------------|
Db|-0000-8p7p0-8-----------------|
    ....

Guitar 2:
eb|------------------------------|
Bb|------------------------------|
Gb|------------------------------|
Db|------------------------------|
Ab|----------------3h/6--------5-|
Db|-0000-8p7p0-8-3------6\3h/5---|
    ....

End of Break 1.
===========================
Verse 2:

Guitar 1:
eb|---------------------------------------------------------------------|
Bb|---------------------------------------------------------------------|
Gb|-7-7-7-7-7-7-7-7-7-7-7-7-7-7-7-7-5-5-5-5-5-5-5-5-10-10-10-10-9-9-9-9-|
Db|-x-x-x-x-x-x-x-x-x-x-x-x-x-x-x-x-x-x-x-x-x-x-x-x--x--x--x--x-x-x-x-x-| x4
Ab|-5-5-5-5-5-5-5-5-5-5-5-5-5-5-5-5-3-3-3-3-3-3-3-3--8--8--8--8-7-7-7-7-|
Db|---------------------------------------------------------------------|

Guitar 2:
eb|-----------------------------------------------------------------|
Bb|-----------------------------------------------------------------|
Gb|-----7-7-----------------------------7-7-------------------------|
Db|---------8-8-5-5-7-7---------------------8-8-5-5-7-7-------------| x4
Ab|-5-5-----------------8-8-7-7-8-8-5-5-----------------8-8-7-7-8-8-|
Db|-----------------------------------------------------------------|

============================
Guitars 1 and 2:
eb|-----------------------------------------------------------------|
Bb|-----------------------------------------------------------------|
Gb|-----------------------------------------------------------------|
Db|-----------------------------------------------------------------|
Ab|-------------------------5-5-3-3---------------------------------|
Db|-5h7-7-7-8p7-5h7-5h7-7-8---------5h7-7-7-8-7-5-7-5h7-7-7-5-5-8-8-|

============================
Guitars 1 and 2:
eb|-----------------------------------------------------------------|
Bb|-----------------------------------------------------------------|
Gb|-----------------------------------------------------------------|
Db|-----------------------------------------------------------------|
Ab|-------------------------5-5-3-3---------------------------------|
Db|-5h7-7-7-8p7-5h7-5h7-7-8---------5h7-7-7-8-7-5-7-7-7-7-7-7-7-7-7-|

End of Verse 2.
============================
Pre Chorus 2:

Guitar 1:
eb|---------------------------------------------------------------------------------|
Bb|---------------------------------------------------------------------------------|
Gb|---------------------------------------------------------------------------------|
Db|-0-0--0------------------------------------0-0--0--------------------------------| x2
Ab|-0-0--0------------------------------------0-0--0--------------------------------|
Db|-0-0--0--2*-2*-2*-2*--0-1--0--2*-2*-2*-2*--0-0--0--2*-2*-2*-2*--10-7-8-5-7-3-5-3-|

Guitar 2:
eb|---------------------------------------------------------------------------------|
Bb|---------------------------------------------------------------------------------|
Gb|---------------------------------------------------------------------------------|
Db|-0-0--0------------------------------------0-0--0--------------------------------| x2
Ab|-0-0--0------------------------------------0-0--0--------------------------------|
Db|-0-0--0--3*-3*-3*-3*--0-1--0--3*-3*-3*-3*--0-0--0--3*-3*-3*-3*--10-7-8-5-7-3-5-3-|

Pre Chorus 2.
============================
Chorus 1:

Guitar 1:
eb|-----------------------------------------------------------------|
Bb|-----------------------------------------------------------------|
Gb|-----------------------------------------------------------------|
Db|-0--0-3~~--0--6--0--0-3~~--0--6--0--0-3~~--0--6--8-7-5-----------|
Ab|-0--0-3~~--0--6--0--0-3~~--0--6--0--0-3~~--0--6--------8-6-5-6-8-|
Db|-0--0-3~~--0--6--0--0-3~~--0--6--0--0-3~~--0--6------------------|

Guitar 2:
eb|-----------------------------------------------------------------|
Bb|-----------------------------------------------------------------|
Gb|-----------------------------------------------------------------|
Db|-0--0-3~~--0--6--0--0-3~~--0--6--0--0-3~~--0--6------------------|
Ab|-0--0-3~~--0--6--0--0-3~~--0--6--0--0-3~~--0--6--6-5-3-----------|
Db|-0--0-3~~--0--6--0--0-3~~--0--6--0--0-3~~--0--6--------8-6-5-6-8-|

============================
Guitar 1:
eb|-----------------------------------------------------------------|
Bb|-----------------------------------------------------------------|
Gb|-----------------------------------------------------------------|
Db|-0--0-3~~--0--6--0--0-3~~--0--6--0--0-3~~--0--6--5-3-1-----------|
Ab|-0--0-3~~--0--6--0--0-3~~--0--6--0--0-3~~--0--6--------5-3-1-3-5-|
Db|-0--0-3~~--0--6--0--0-3~~--0--6--0--0-3~~--0--6------------------|


Guitar 2:
eb|-----------------------------------------------------------------|
Bb|-----------------------------------------------------------------|
Gb|-----------------------------------------------------------------|
Db|-0--0-3~~--0--6--0--0-3~~--0--6--0--0-3~~--0--6------------------|
Ab|-0--0-3~~--0--6--0--0-3~~--0--6--0--0-3~~--0--6--6-5-3-----------|
Db|-0--0-3~~--0--6--0--0-3~~--0--6--0--0-3~~--0--6--------8-6-5-6-8-|

============================
Break 2:




Guitars 1 and 2:
eb|------------------------------------------------------------------------------------|
Bb|------------------------------------------------------------------------------------|
Gb|------------------------------------------------------------------------------------|
Db|------------------3~(3)/6---------------------------------------------------3~(3)/6-|
Ab|------------------3~(3)/6----------------3-3-3-6-6-6-5-5--------------------3~(3)/6-|
Db|-0000-8p7p0-8-000-3~(3)/6--0000-8p7p0-8--3-3-3-6-6-6-5-5--0000-8p7p0-8--000-3~(3)/6-|
    ....         ...          ....          ...............  ....          ...

===========================
Guitar 1:
eb|------------------------------|
Bb|------------------------------|
Gb|----------------5h/8--------7-|
Db|--------------3------6\3h/5---|
Ab|------------------------------|
Db|-0000-8p7p0-8-----------------|
    ....

Guitar 2:
eb|------------------------------|
Bb|------------------------------|
Gb|------------------------------|
Db|------------------------------|
Ab|----------------3h/6--------5-|
Db|-0000-8p7p0-8-3------6\3h/5---|
    ....

End of Break 2.
===========================
Verse 3:

Guitar 1:
eb|-----------------------------------------------------------------------------|
Bb|-----------------------------------------------------------------------------|
Gb|-----10-10-7-7-----------------------------10-10-7-7-------------------------|
Db|---------------8-8-10-10-7-7-------7-7---------------8-8-10-10-7-7-------7-7-| x4
Ab|-8-8-------------------------10-10-----8-8-------------------------10-10-----|
Db|-----------------------------------------------------------------------------|

Guitar 2:
eb|-----------------------------------------------------------------|
Bb|-----------------------------------------------------------------|
Gb|-----7-7-----------------------------7-7-------------------------|
Db|---------8-8-5-5-7-7---------------------8-8-5-5-7-7-------------| x4
Ab|-5-5-----------------8-8-7-7-8-8-5-5-----------------8-8-7-7-8-8-|
Db|-----------------------------------------------------------------|

============================
Guitar 1:
eb|-----------------------------------------------------------------|
Bb|-----------------------------------------------------------------|
Gb|-2!------------------------------3!------------------------------|
Db|-x-------------------------------x-------------------------------|
Ab|-0!------------------------------1!------------------------------|
Db|-----------------------------------------------------------------|

Guitar 2:
eb|-----------------------------------------------------------------|
Bb|-----------------------------------------------------------------|
Gb|-----------------------------------------------------------------|
Db|-----------------------------------------------------------------|
Ab|---------------------------------------------------------5-5-3-3-|
Db|-5h7-7-7-8p7-5h7-5h7-7-7-8p7-5h7-5h7-7-7-8p7-5h7-5h7-7-8---------|

=============================
Guitar 1:
eb|--------------------------------------------------------|
Bb|--------------------------------------------------------|
Gb|-5!-----------------------------------------------------|
Db|-x------------------------------------------------------|
Ab|-3!-----------------------------------------------------|
Db|--------------------------------------------------------|

Guitar 2:
eb|--------------------------------------------------------|
Bb|--------------------------------------------------------|
Gb|--------------------------------------------------------|
Db|--------------------------------------------------------|
Ab|--------------------------------------------------------|
Db|-5h7-7-7-8p7-5h7-5h7-7-7-8p7-5h7-------------------13p\-|

End of Verse 3.
==============================
Pre Chorus 3:

Guitar 1:
eb|---------------------------------------------------------------------------------|
Bb|---------------------------------------------------------------------------------|
Gb|---------------------------------------------------------------------------------|
Db|-0-0--0------------------------------------0-0--0--------------------------------| x2
Ab|-0-0--0------------------------------------0-0--0--------------------------------|
Db|-0-0--0--2*-2*-2*-2*--0-1--0--2*-2*-2*-2*--0-0--0--2*-2*-2*-2*--10-7-8-5-7-3-5-3-|

Guitar 2:
eb|---------------------------------------------------------------------------------|
Bb|---------------------------------------------------------------------------------|
Gb|---------------------------------------------------------------------------------|
Db|-0-0--0------------------------------------0-0--0--------------------------------| x2
Ab|-0-0--0------------------------------------0-0--0--------------------------------|
Db|-0-0--0--3*-3*-3*-3*--0-1--0--3*-3*-3*-3*--0-0--0--3*-3*-3*-3*--10-7-8-5-7-3-5-3-|

==============================
Chorus 3:

Guitar 1:
eb|-----------------------------------------------------------------|
Bb|-----------------------------------------------------------------|
Gb|-----------------------------------------------------------------|
Db|-0--0-3~~--0--6--0--0-3~~--0--6--0--0-3~~--0--6--8-7-5-----------| x2
Ab|-0--0-3~~--0--6--0--0-3~~--0--6--0--0-3~~--0--6--------8-6-5-6-8-|
Db|-0--0-3~~--0--6--0--0-3~~--0--6--0--0-3~~--0--6------------------|

Guitar 2:
eb|-----------------------------------------------------------------|
Bb|-----------------------------------------------------------------|
Gb|-----------------------------------------------------------------|
Db|-0--0-3~~--0--6--0--0-3~~--0--6--0--0-3~~--0--6------------------| x2
Ab|-0--0-3~~--0--6--0--0-3~~--0--6--0--0-3~~--0--6--6-5-3-----------|
Db|-0--0-3~~--0--6--0--0-3~~--0--6--0--0-3~~--0--6--------8-6-5-6-8-|

End of Chorus 3.
===============================
Outro:

Guitars 1 and 2:
eb|---------------------------------------------------------------------------------------|
Bb|---------------------------------------------------------------------------------------|
Gb|---------------------------------------------------------------------------------------|
Db|----------3---3-----3~(3)/6-----------3---3--------------------------3---3-----3~(3)/6-|
Ab|----------1p0-1-----3~(3)/6-----------1p0-1-3-3-3-6-6-6-5-5----------1p0-1-----3~(3)/6-|
Db|-00000000-------000-3~(3)/6--00000000-------3-3-3-6-6-6-5-5-00000000-------000-3~(3)/6-|
    ........       ...          ........       ............... ........       ...

===============================
Guitar 1:
eb|--------------------------------------------------x--------------------------|
Bb|--------------------------------------------------x------------------------1-|
Gb|-------------------5h/8--------7h/11\-------------x------------------------0-|
Db|----------3---3--3------6\3h/5-----------7p6-7p6--x------------------------0-|
Ab|----------1p0-1-----------------------7*-7p6-7p6----------------------2~~~---|
Db|-00000000--------------------------------7p6-7p6--------------0~~~~~---------|
    ........

Guitar 2:
                                     1_____  1.5_______________________________
eb|---------------------------------------------------------------------------------------|
Bb|---------------------------------------------------------------------------------------|
Gb|---------------------------------------------------------------------------------------|
Db|----------3---3------------------------------------------------------------------x/x/x-|
Ab|----------1p0-1----3h/6----------------------------------------------------------x/x/x-|
Db|-00000000--------3------6\3h/5--/12b----(12)b~~~~~12--12-12-12--12-12---12--(12)-------|
    ........

================================
That's It.
Please Rate and Comment My Tab.
Thanks.
[travis]





Comments


Popular Stone Sour tabs & chords
Bother Chords
Through Glass 4 Chords
Bother Tabs
Bother 3 Tabs
Hell And Consequences 1 Tabs
Hell And Consequences 5 Tabs
Hesitate 4 Tabs
Idle Hands 2 Tabs
Anna Ukulele
Say Youll Haunt Me Ukulele


Song lyrics



↑ Back to top | Tablatures and chords are parodies/interpretations of the original songs. You may use it for private study, scholarship, research or language learning purposes only
© 2014 AZChords.com Contact us | Privacy policy | DMCA | Add/correct tabs | Request tabs | Top 50 tabs