» » »

Stone Sour, Reborn Tabs (ver.3)

Artists:  A B C D E F G H I J K L M N O P Q R S T U V W X Y Z # 

Reborn Tabs (ver.3)

Stone Sour Tabs
Rating:
0/5 (0 votes)
Reborn lessons Tabs too difficult? Try these video lessons and learn fast
                
intro
----------------------------------------------------------------------|
----------------------------------------------------------------------|
----------------------------------------------------------9-------8---|
-000000-878-000-3/6--000000-878-000-333666------------7h9---9-7h9-----|
-000000-878-000-3/6--000000-878-000-333666-repeat-2x------------------|
-000000-878-000-3/6--000000-878-000-333666----------------------------|

verse guitar 1
----------------------------------|
----------------------------------|
-----7-7--------------------------|
---------8-8-5-5-7-7-3-3-2-2-3-3--|
-5-5------------------------------|
----------------------------------|

guitar 2
-------------------------------------------------------------------|
-------------------------------------------------------------------|
-------------------------------------------------------------------|
-------------------------------------------------------------------|
-7-7-7-7-7-7-7-7-7-7-7-7-7-7-7-5-5-5-5-5-5-5-5-10-10-10-9-9-10-10--|
-------------------------------------------------------------------|

pre chorus (both guitarist)
-----------------------------------------------------------------------|
-----------------------------------------------------------------------|
-----------------------------------------------------------------------|
-----------------------------------------------------------------------|
-----------------------------------------------------------------------|
-9-9-9-9-10-9-8-9-9-9-9-9-9-13-12-10-9-9-9-9-10-9-8-9-9-9-9-9-9-10-11--|


------------------------------------------------------------------------|
------------------------------------------------------------------------|
------------------------------------------------------------------------|
------------------------------------------------------------------------|
-------------------------------------------------------9-9-9-9-9-9-9-9--|
-9-9-9-9-10-9-8-9-9-9-9-9-9-13-12-10-9-9-9-9--10-9-8-9-9-9-9-9-9-9-9-9--|
                                                       * * * * * * * *
then chorus
----------------------------------------------------------------|
----------------------------------------------------------------|
----------------------------------------------------------------|
-0-0-0----------0-1-0----------0-1-0----------------------------| 2x
-0-0-0-5*5*5*5*-0-1-0-5*5*5*5*-0-1-0-5*5*5*5*-------------------|
-0-0-0----------0-1-0----------0-1-0----------10-7-8-5-7-3-5-2--|

repeat intro
repeat verse guitar 1 and 2
repeat pre chorus (both guitars)
repeat chorus

chorus pt 2
------------------------------------------|
------------------------------------------|
------------------------------------------|
--2--5--8---------------------------------|
--2--5--8-repeat-3x-----------------------|
--2--5--8------------14-12-10-9-10-9-7-9--|

verse guitar 1
----------------------------------|
----------------------------------|
-----7-7--------------------------|
---------8-8-5-5-7-7-3-3-2-2-3-3--|
-5-5------------------------------|
----------------------------------|

guitar 2
----------------------------------|
----------------------------------|
----------------------------------|
-----7-7--------------------------|
---------8-8-5-5-7-7-3-3-2-2-3-3--|
-5-5------------------------------|

pre chorus (both guitars)
-----------------------------------------------------------------------|
-----------------------------------------------------------------------|
-----------------------------------------------------------------------|
-----------------------------------------------------------------------|
-----------------------------------------------------------------------|
-9-9-9-9-10-9-8-9-9-9-9-9-9-9-13-12-9-9-9-9-10-8-9-9-9-9-9-9-13-12-10--|


-----------------------------------|
-----------------------------------|
-----------------------------------|
-----------------------------------|
-----------------------------------|
-9-9-9-9-10-9-8-9-9-9-9-9-9-9-9-9--|

repeat chorus
repeat chorus pt 2

outro
-------------------------------------------|
-------------------------------------------|
-------------------------------------------|
-000000-878-000-3/6-000000-878-000-333666--|
-000000-878-000-3/6-000000-878-000-333666--|
-000000-878-000-3/6-000000-878-000-333666--|

---------------------------------------------|
---------------------------------------------|
-----------------------------------9-------8-|
-000000-878-000-3/6-000000-878-7h9---9-7h9---|
-000000-878-000-3/6-000000-878---------------|
-000000-878-000-3/6-000000-878---------------|
            
Submit corrections

comments powered by Disqus
↑ Back to top | Stone Sour Tabs for Reborn. Lyrics for acoustic guitar and electric guitar. Tablatures and chords are parodies/interpretations of the original songs. You may use it for private study, scholarship, research or language learning purposes only