» » »

Stone Sour, Mission Statement Tabs (ver.2)

Artists:  A B C D E F G H I J K L M N O P Q R S T U V W X Y Z # 

Mission Statement Tabs (ver.2)

Stone Sour Tabs
 Rating:
4/5 (4 votes)
Mission Statement lessons Tabs too difficult? Try these video lessons and learn fast
1
                -------------------------------------------------------------------------------
                           Mission Statement - Stone Sour
-------------------------------------------------------------------------------

Tuning: Dropped D tuning.

This is the only accurate versionListen To song for Rhythm

Intro   Repeat this a few times    then do this    then repeat the first octave chords
e|--------------------------------|-----------|--------------------------------|
B|--------------------------------|-----------|--------------------------------|
G|------7s8s7-7s8s11s8------------|-----------|--------------------------------|
D|--------------------------------|---8-10-7--|--------------------------------|
A|------5s6s5-5s6s9s6-------------|---8-10-7--|--------------------------------|
E|--------------------------------|---8-10-7--|--------------------------------|
Do intro twice

Riff 1, Palm mute on Open strings
e|---------------------------------------------------------------------------|
B|---------------------------------------------------------------------------|
G|---------------------------------------------------------------------------|
D|-----------------------------------------------------5p4-------------------|
A|--------------------------6p5-9--------------------------5p3-6p5-----------|
E|-0-0-0-0-0-0-0000-8p7-8p7-------0-0-0-0-0-0-00000000-------------8p7-------|
Riff 1 twice

Verse (Palm mute open strings)
e|---------------------------------------------------------------------------|
B|---------------------------------------------------------------------------|
G|---------------------------------------------------------------------------|
D|--------------4------------------------------------------------------------|
A|-9--------6-5-----5---6------9---------6-----5---6-------------------------|
E|--0-0-7-0-------7---9---8-7----0-0-7-0---7-8---9---8-----------------------|

Pre-Chorus:
e|---------------------------------------------------------------------------|
B|---------------------------------------------------------------------------|
G|-8-8-8-8-7-7-7-7-8-8-8-8-10-10-10-10---------------------------------------|
D|---------------------------------------------------------------------------|
A|-8-8-8-8-7-7-7-7-8-8-8-8-10-10-10-10---------------------------------------|
E|---------------------------------------------------------------------------|

The Chorus is clearly two guitars, but this is a rough one guitar version
e|---------------------------------------------------------------------------|
B|---------------------------------------------------------------------------|
G|--7-7-7-7-7-7-7-7-7-7-7-7-7-7-7-7-7-5-5-5-5-5-5-5--------------------------|
D|------------------------5-5-5-5-5-5----------------------------------------|
A|--5-5-5-5-5-5-5-5-5-5-5-5-5-5-5-5-5-6-6-6-6-6-6-6--------------------------|
E|--0-0-0-0-0-8-8-8-8-8-8-5-5-5-5-5-5-0-0-0-0-0-0-0--------------------------|
"And I want you all, to tell me who i am..."
e|---------------------------------------------------------------------------|
B|---------------------------------------------------------------------------|
G|---------------------------------------------------------------------------|
D|-7s8s7-7s6s11--------------------------------------------------------------|
A|-5s6s5-5s6s9---------------------------------------------------------------|
E|---------------------------------------------------------------------------|

Before the solo repeat riff 1

I only know the rhythm part, feel free to send me the solo if you have it.
e|---------------------------------------------------------------------------|
B|---------------------------------------------------------------------------|
G|---------------------------------------------------------------------------|
D|---------------------------------------------------------------------------|
A|---------------------------------------------------------------------------|
E|-0-0-0-0-0-0---------------------------------------------------------------|
  PM. So on and so forth

Interlude 
e|---------------------------------------------------------------------------|
B|---------------------------------------------------------------------------|
G|---------------------------------------------------------------------------|
D|-----7----7-7---7--=8----8-8----5---5----5--5----5----5--5--5--------------|
A|-5-5--5-5--5--5--5-5--5-5--5-5-5--5-5-5-5--5--6-6--6-6--6--6---------------|
E|---------------------------------------------------------------------------|
PM everything on A string for interlude riff

************************************

| /   slide up
| \   slide down
| h   hammer-on
| p   pull-off
| ~   vibrato
| +   harmonic
| x   Mute note
| b   Bend
| pb  Pre-bend
| br  Bend release
| pbr Pre-bend release
| brb Bend release bend
            
Submit corrections

comments powered by Disqus
↑ Back to top | Stone Sour Tabs for Mission Statement. Lyrics for acoustic guitar and electric guitar. 1 Tablatures and chords are parodies/interpretations of the original songs. You may use it for private study, scholarship, research or language learning purposes only