>
 >
Mission Statement

Mission Statement Guitar Tabs

Stone  Sour - Mission Statement chords, tabs, tablatures, lyrics

Guitar lessons | Add/correct | Request | Top 50 tabs Artists:  A B C D E F G H I J K L M N O P Q R S T U V W X Y Z 0-9

Mission Statement Guitar Tabs – Stone Sour

CD, Sheet music, Poster

Do you like Mission Statement? Share with your friends now
Bass TabsTabsTabs v2
Words: Corey Taylor
Music: Corey Taylor, Roy Mayorga, Jim Root, Josh Rand and Shawn Economaki

L - tied note
x - dead note
h - hammer on/pull off
b - bend
s - slide
~ - vibrato
g - ghost note
> - accentuated note
t - trill
M - palm mute
. - staccato
P - popping (bass)
S - slapping (bass)
+ - tapping
W - wide vibrato
< - fade in
w - whammy bar
= - tremolo picking
v - brush up
^ - brush down
V - pick stroke up
n - pick stroke down


[James Root]
E |----------------------------|----------------------------|
B |----------------------------|----------------------------|
G |--7s-8s-7-------------------|--7s-8s----11----8s-7s-8s---|
D |--x--x--x-------------------|--x--x-----x-----x--x--x----|
A |--5s-6s-5-------------------|--5s-6s----9-----6s-5s-6s---|
D |----------------------------|----------------------------|


----------------------------|----------------------------|
----------------------------|----------------------------|
--7s-8s-7-------------------|--2--------4--------1-------|
--x--x--x-------------------|--2--------4--------1-------|
--5s-6s-5-------------------|--0--------2----------------|
----------------------------|----------------------------|


----------------------------|----------------------------|
----------------------------|----------------------------|
--7s-8s-7-------------------|--7s-8s----11----8s-7s-8s---|
--x--x--x-------------------|--x--x-----x-----x--x--x----|
--5s-6s-5-------------------|--5s-6s----9-----6s-5s-6s---|
----------------------------|----------------------------|


----------------------------|----------------------------|
----------------------------|----------------------------|
--7s-8s-7-------------------|--2--------4--------1-------|
--x--x--x-------------------|--2--------4--------1-------|
--5s-6s-5-------------------|--0--------2----------------|
----------------------------|----------------------------|


----------------------------------------------------|
----------------------------------------------------|
----------------------------------------------------|
----------------------------------------------------|
----------------------------------------------------|
--0-----0-----0-----0-----0--0--0--0--0-----0-------|


----------------------------|
----------------------------|
----------------------------|
----------------------------|
----------------------------|
--8--7--0--8--0--8--8--11---|


----------------------------------------------------|
----------------------------------------------------|
----------------------------------------------------|
----------------------------------------------------|
----------------------------------------------------|
--0-----0-----0-----0-----0--0--0--0--0-----0-------|


----------------------------|
----------------------------|
----------------------------|
----------------------------|
--10------------------------|
-----16-13-12-16-13-12-10---|


----------------------------------------------------|
----------------------------------------------------|
----------------------------------------------------|
----------------------------------------------------|
----------------------------------------------------|
--0-----0-----0-----0-----0--0--0--0--0-----0-------|


----------------------------|
----------------------------|
----------------------------|
----------------------------|
----------------------------|
--8--7--0--8--0--8--8--11---|


----------------------------------------------------|
----------------------------------------------------|
----------------------------------------------------|
----------------------------------------------------|
----------------------------------------------------|
--0-----0-----0-----0-----0--0--0--0--0-----0-------|


----------------------------|----------------------------|
----------------------------|----------------------------|
----------------------------|----------------------------|
----------------------------|----------------------------|
--10------------------------|--9-------------------------|
-----16-13-12-16-13-12-10---|-----0--0--12-0--13-0--0----|


----------------------------|----------------------------|
----------------------------|----------------------------|
----------------------------|----------------------------|
----------------------------|----------------------------|
----------------------------|--9-------------------------|
--12-16-8--13-12-13-0--0----|-----0--0--12-0--13-0--0----|


----------------------------|----------------------------|
----------------------------|----------------------------|
----------------------------|----------------------------|
----------------------------|----------------------------|
----------------------------|--9-------------------------|
--7--8--12-0--10-12-0--0----|-----0--0--12-0--13-0--0----|


----------------------------|----------------------------|
----------------------------|----------------------------|
----------------------------|----------------------------|
----------------------------|----------------------------|
----------------------------|--9-------------------------|
--12-16-8--13-12-13-0--0----|-----0--0--12-0--13-0--0----|


----------------------------|----------------------------|
----------------------------|----------------------------|
----------------------------|----------------------------|
----------------------------|----------------------------|
----------------------------|--9-------------------------|
--7--8--12-0--10-12-0--0----|-----0--0--12-0--13-0--0----|


----------------------------|----------------------------|
----------------------------|----------------------------|
----------------------------|----------------------------|
----------------------------|----------------------------|
----------------------------|--9-------------------------|
--12-16-8--13-12-13-0--0----|-----0--0--12-0--13-0--0----|


----------------------------|----------------------------|
----------------------------|----------------------------|
----------------------------|----------------------------|
----------------------------|----------------------------|
----------------------------|--9-------------------------|
--7--8--12-0--10-12-0--0----|-----0--0--12-0--13-0--0----|


----------------------------|----------------------------|
----------------------------|----------------------------|
----------------------------|----------------------------|
----------------------------|----------------------------|
----------------------------|--9-------------------------|
--12-16-8--13-12-13-0--0----|-----0--0--12-0--13-0--0----|


----------------------------|----------------------------|
----------------------------|----------------------------|
-----------5----------------|--2--2--2--3--3--3--3--3----|
--3--2--3-----3--2--3--0----|--x--x--x--2--2--2--2--2----|
----------------------------|--0--0--0--0--0--0--0--0----|
----------------------------|----------------------------|


----------------------------|----------------------------|
----------------------------|----------------------------|
--2--2--2--3--5--5--5--5----|--2--2--2--3--3--3--3--3----|
--x--x--x--2--x--x--x--x----|--x--x--x--2--2--2--2--2----|
--0--0--0--0--3--3--3--3----|--0--0--0--0--0--0--0--0----|
----------------------------|----------------------------|


----------------------------|----------------------------|
----------------------------|----------------------------|
--2--2--2--3--5--5--5--5----|--7--7--7--5--5--5--5--5----|
--x--x--x--2--x--x--x--x----|--x--x--x--x--x--x--x--x----|
--0--0--0--0--3--3--3--3----|--5--5--5--3--3--3--3--3----|
----------------------------|----------------------------|


----------------------------|----------------------------|
----------------------------|----------------------------|
--7--7--7--5--10-10-10-10---|--7--7--7--5--5--5--5--5----|
--x--x--x--x--x--x--x--x----|--x--x--x--x--x--x--x--x----|
--5--5--5--3--7--7--7--7----|--5--5--5--3--3--3--3--3----|
----------------------------|----------------------------|


----------------------------------------------------|
----------------------------------------------------|
--------------7-----------------------7-------------|
--2--3--5--3-----3--2--3--2--3--5--3----------------|
----------------------------------------------------|
----------------------------------------------------|


----------------------------|----------------------------|
----------------------------|----------------------------|
--7--7--7--7--5--7--7--3L---|--3--3--3--3--3--3--3--3----|
--7--7--7--7--5--7--7--3L---|--3--3--3--3--3--3--3--3----|
--5--5--5--5--5--5--5--1L---|--1--1--1--1--1--0--1--0----|
----------------------------|----------------------------|


----------------------------|----------------------------|
----------------------------|----------------------------|
----------------------------|----------------------------|
--5--5--5--5--5--5--5--1L---|--1--1--1--1--1--1--1--1----|
--5--5--5--5--5--5--5--1L---|--1--1--1--1--1--1--1--1----|
--5--5--5--5--5--5--5--1L---|--1--1--1--1--1--1--1--1----|


----------------------------|----------------------------|
----------------------------|----------------------------|
--7--7--7--7--5--7--7--3L---|--3--3--3--3--3--3--3--3----|
--7--7--7--7--5--7--7--3L---|--3--3--3--3--3--3--3--3----|
--5--5--5--5--5--5--5--1L---|--1--1--1--1--1--0--1--0----|
----------------------------|----------------------------|


----------------------------|----------------------------|
----------------------------|----------------------------|
----------------------------|----------------------------|
--5--5--5--5--5--5--5--1L---|--1--1--1--1--1--1--1--1----|
--5--5--5--5--5--5--5--1L---|--1--1--1--1--1--1--1--1----|
--5--5--5--5--5--5--5--1L---|--1--1--1--1--1--1--1--1----|


----------------------------|----------------------------|-------|
----------------------------|----------------------------|-------|
----------------------------|----------------------------|-------|
--0--1--0-------------------|--0--1-----4-----1--0--1----|--0----|
--0--1--0-------------------|--0--1-----4-----1--0--1----|--0----|
--0--1--0-------------------|--0--1-----4-----1--0--1----|--0----|


----------------------------|----------------------------|
----------------------------|----------------------------|
--2--------4--------1-------|----------------------------|
--2--------4--------1-------|--0--1--0-------------------|
--0--------2----------------|--0--1--0-------------------|
----------------------------|--0--1--0-------------------|


----------------------------|-------|----------------------------|
----------------------------|-------|----------------------------|
----------------------------|-------|--2--------4--------1-------|
--0--1-----4-----1--0--1----|--0----|--2--------4--------1-------|
--0--1-----4-----1--0--1----|--0----|--0--------2----------------|
--0--1-----4-----1--0--1----|--0----|----------------------------|


----------------------------------------------------|
----------------------------------------------------|
----------------------------------------------------|
----------------------------------------------------|
----------------------------------------------------|
--0-----0-----0-----0-----0--0--0--0--0-----0-------|


----------------------------|
----------------------------|
----------------------------|
----------------------------|
----------------------------|
--8--7--0--8--0--8--8--11---|


----------------------------------------------------|
----------------------------------------------------|
----------------------------------------------------|
----------------------------------------------------|
----------------------------------------------------|
--0-----0-----0-----0-----0--0--0--0--0-----0-------|


----------------------------|
----------------------------|
----------------------------|
----------------------------|
--10------------------------|
-----16-13-12-16-13-12-10---|


----------------------------------------------------|
----------------------------------------------------|
----------------------------------------------------|
----------------------------------------------------|
----------------------------------------------------|
--0-----0-----0-----0-----0--0--0--0--0-----0-------|


----------------------------|
----------------------------|
----------------------------|
----------------------------|
----------------------------|
--8--7--0--8--0--8--8--11---|


----------------------------------------------------|
----------------------------------------------------|
----------------------------------------------------|
----------------------------------------------------|
----------------------------------------------------|
--0-----0-----0-----0-----0--0--0--0--0-----0-------|


----------------------------|----------------------------|
----------------------------|----------------------------|
----------------------------|----------------------------|
----------------------------|----------------------------|
--10------------------------|--9-------------------------|
-----16-13-12-16-13-12-10---|-----0--0--12-0--13-0--0----|


----------------------------|----------------------------|
----------------------------|----------------------------|
----------------------------|----------------------------|
----------------------------|----------------------------|
----------------------------|--9-------------------------|
--12-16-8--13-12-13-0--0----|-----0--0--12-0--13-0--0----|


----------------------------|----------------------------|
----------------------------|----------------------------|
----------------------------|----------------------------|
----------------------------|----------------------------|
----------------------------|--9-------------------------|
--7--8--12-0--10-12-0--0----|-----0--0--12-0--13-0--0----|


----------------------------|----------------------------|
----------------------------|----------------------------|
----------------------------|----------------------------|
----------------------------|----------------------------|
----------------------------|--9-------------------------|
--12-16-8--13-12-13-0--0----|-----0--0--12-0--13-0--0----|


----------------------------|----------------------------|
----------------------------|----------------------------|
----------------------------|----------------------------|
----------------------------|----------------------------|
----------------------------|--9-------------------------|
--7--8--12-0--10-12-0--0----|-----0--0--12-0--13-0--0----|


----------------------------|----------------------------|
----------------------------|----------------------------|
----------------------------|----------------------------|
----------------------------|----------------------------|
----------------------------|--9-------------------------|
--12-16-8--13-12-13-0--0----|-----0--0--12-0--13-0--0----|


----------------------------|----------------------------|
----------------------------|----------------------------|
----------------------------|----------------------------|
----------------------------|----------------------------|
----------------------------|--9-------------------------|
--7--8--12-0--10-12-0--0----|-----0--0--12-0--13-0--0----|


----------------------------|----------------------------|
----------------------------|----------------------------|
----------------------------|----------------------------|
----------------------------|----------------------------|
----------------------------|--9-------------------------|
--12-16-8--13-12-13-0--0----|-----0--0--12-0--13-0--0----|


----------------------------|----------------------------|
----------------------------|----------------------------|
-----------5----------------|--2--2--2--3--3--3--3--3----|
--3--2--3-----3--2--3--0----|--x--x--x--2--2--2--2--2----|
----------------------------|--0--0--0--0--0--0--0--0----|
----------------------------|----------------------------|


----------------------------|----------------------------|
----------------------------|----------------------------|
--2--2--2--3--5--5--5--5----|--2--2--2--3--3--3--3--3----|
--x--x--x--2--x--x--x--x----|--x--x--x--2--2--2--2--2----|
--0--0--0--0--3--3--3--3----|--0--0--0--0--0--0--0--0----|
----------------------------|----------------------------|


----------------------------|----------------------------|
----------------------------|----------------------------|
--2--2--2--3--5--5--5--5----|--7--7--7--5--5--5--5--5----|
--x--x--x--2--x--x--x--x----|--x--x--x--x--x--x--x--x----|
--0--0--0--0--3--3--3--3----|--5--5--5--3--3--3--3--3----|
----------------------------|----------------------------|


----------------------------|----------------------------|
----------------------------|----------------------------|
--7--7--7--5--10-10-10-10---|--7--7--7--5--5--5--5--5----|
--x--x--x--x--x--x--x--x----|--x--x--x--x--x--x--x--x----|
--5--5--5--3--7--7--7--7----|--5--5--5--3--3--3--3--3----|
----------------------------|----------------------------|


----------------------------------------------------|
----------------------------------------------------|
--------------7-----------------------7-------------|
--2--3--5--3-----3--2--3--2--3--5--3----------------|
----------------------------------------------------|
----------------------------------------------------|


----------------------------|----------------------------|
----------------------------|----------------------------|
--7--7--7--7--5--7--7--3L---|--3--3--3--3--3--3--3--3----|
--7--7--7--7--5--7--7--3L---|--3--3--3--3--3--3--3--3----|
--5--5--5--5--5--5--5--1L---|--1--1--1--1--1--0--1--0----|
----------------------------|----------------------------|


----------------------------|----------------------------|
----------------------------|----------------------------|
----------------------------|----------------------------|
--5--5--5--5--5--5--5--1L---|--1--1--1--1--1--1--1--1----|
--5--5--5--5--5--5--5--1L---|--1--1--1--1--1--1--1--1----|
--5--5--5--5--5--5--5--1L---|--1--1--1--1--1--1--1--1----|


----------------------------|----------------------------|
----------------------------|----------------------------|
--7--7--7--7--5--7--7--3L---|--3--3--3--3--3--3--3--3----|
--7--7--7--7--5--7--7--3L---|--3--3--3--3--3--3--3--3----|
--5--5--5--5--5--5--5--1L---|--1--1--1--1--1--0--1--0----|
----------------------------|----------------------------|


----------------------------|----------------------------|
----------------------------|----------------------------|
----------------------------|----------------------------|
--5--5--5--5--5--5--5--1L---|--1--1--1--1--1--1--1--1----|
--5--5--5--5--5--5--5--1L---|--1--1--1--1--1--1--1--1----|
--5--5--5--5--5--5--5--1L---|--1--1--1--1--1--1--1--1----|


----------------------------|----------------------------|-------|
----------------------------|----------------------------|-------|
----------------------------|----------------------------|-------|
--0--1--0-------------------|--0--1-----4-----1--0--1----|--0----|
--0--1--0-------------------|--0--1-----4-----1--0--1----|--0----|
--0--1--0-------------------|--0--1-----4-----1--0--1----|--0----|


----------------------------|----------------------------|
----------------------------|----------------------------|
--2--------4--------1-------|----------------------------|
--2--------4--------1-------|--0--1--0-------------------|
--0--------2----------------|--0--1--0-------------------|
----------------------------|--0--1--0-------------------|


----------------------------|-------|----------------------------|
----------------------------|-------|----------------------------|
----------------------------|-------|--2--------4--------1-------|
--0--1-----4-----1--0--1----|--0----|--2--------4--------1-------|
--0--1-----4-----1--0--1----|--0----|--0--------2----------------|
--0--1-----4-----1--0--1----|--0----|----------------------------|


----------------------------------------------------|
----------------------------------------------------|
----------------------------------------------------|
----------------------------------------------------|
----------------------------------------------------|
--0-----0-----0-----0-----0--0--0--0--0-----0-------|


----------------------------|
----------------------------|
----------------------------|
----------------------------|
----------------------------|
--8--7--0--8--0--8--8--11---|


----------------------------------------------------|
----------------------------------------------------|
----------------------------------------------------|
----------------------------------------------------|
----------------------------------------------------|
--0-----0-----0-----0-----0--0--0--0--0-----0-------|


----------------------------|
----------------------------|
----------------------------|
----------------------------|
--10------------------------|
-----13-12-10-13-8--7--5----|


----------------------------------------------------|
----------------------------------------------------|
----------------------------------------------------|
----------------------------------------------------|
----------------------------------------------------|
--0-----0-----0-----0-----0--0--0--0--0-----0-------|


----------------------------|
----------------------------|
----------------------------|
----------------------------|
----------------------------|
--8--7--0--8--0--8--8--11---|


----------------------------------------------------|
----------------------------------------------------|
----------------------------------------------------|
----------------------------------------------------|
----------------------------------------------------|
--0-----0-----0-----0-----0--0--0--0--0-----0-------|


----------------------------|----------------------------|
----------------------------|----------------------------|
----------------------------|----------------------------|
----------------------------|----------------------------|
--10------------------------|----------------------------|
-----13-12-10-13-8--7--5----|--0M-0M-0M-0M-0M-0M-0M-0M---|


----------------------------|----------------------------|
----------------------------|----------------------------|
----------------------------|----------------------------|
----------------------------|----------------------------|
----------------------------|----------------------------|
--0M-0M-0M-0M-0M-0M-0M-0M---|--0M-0M-0M-0M-0M-0M-0M-0M---|


----------------------------|----------------------------|
----------------------------|----------------------------|
----------------------------|----------------------------|
----------------------------|----------------------------|
--------------5-----1-------|----------------------------|
--0M-0M-0M-0M-5-----1-------|--0M-0M-0M-0M-0M-0M-0M-0M---|


----------------------------|----------------------------|
----------------------------|----------------------------|
----------------------------|----------------------------|
----------------------------|----------------------------|
----------------------------|----------------------------|
--0M-0M-0M-0M-0M-0M-0M-0M---|--0M-0M-0M-0M-0M-0M-0M-0M---|


----------------------------|
----------------------------|
----------------------------|
----------------------------|
--------------5-----1-------|
--0M-0M-0M-0M-5-----1-------|


----------------------------------------------------|
----------------------------------------------------|
----------------------------------------------------|
----------------------------------------------------|
----------------------------------------------------|
--0M-0M-0M----0M-0M-0M----0M-0M-0M----0M-0M-0M------|


----------------------------------------------------|
----------------------------------------------------|
----------------------------------------------------|
----------------------------------------------------|
----------------------------------------------------|
--0M-0M-0M----0M-0M-0M----0M-0M-0M----0M-0M-0M------|


----------------------------------------------------|
----------------------------------------------------|
----------------------------------------------------|
----------------------------------------------------|
----------------------------------------------------|
--0M-0M-0M----0M-0M-0M----0M-0M-0M----0M-0M-0M------|


----------------------------------------------------|
----------------------------------------------------|
----------------------------------------------------|
----------------------------------------------------|
--------------------------5-----------1-------------|
--0M-0M-0M----0M-0M-0M----5-----------1-------------|


----------------------------------------------------|
----------------------------------------------------|
----------------------------------------------------|
----------------------------------------------------|
----------------------------------------------------|
--0M-0M-0M----0M-0M-0M----0M-0M-0M----0M-0M-0M------|


----------------------------------------------------|
----------------------------------------------------|
----------------------------------------------------|
----------------------------------------------------|
----------------------------------------------------|
--0M-0M-0M----0M-0M-0M----0M-0M-0M----0M-0M-0M------|


----------------------------------------------------|
----------------------------------------------------|
----------------------------------------------------|
----------------------------------------------------|
----------------------------------------------------|
--0M-0M-0M----0M-0M-0M----0M-0M-0M----0M-0M-0M------|


----------------------------------------------------|
----------------------------------------------------|
----------------------------------------------------|
----------------------------------------------------|
--------------------------5-----------1-------------|
--0M-0M-0M----0M-0M-0M----5-----------1-------------|


----------------------------|----------------------------|
----------------------------|----------------------------|
----------------------------|----------------------------|
----------------------------|----------------------------|
--------12-------12----12---|--------13-------13----13---|
--12-12----12-12----12------|--12-12----12-12----12------|


----------------------------|----------------------------|
----------------------------|----------------------------|
----------------------------|----------------------------|
----------------------------|----------------------------|
--------10-------10----10---|--------10-------10----10---|
--12-12----12-12----12------|--13-13----13-13----13------|


----------------------------|----------------------------|
----------------------------|----------------------------|
----------------------------|----------------------------|
--------14-------14----14---|--------15-------15----15---|
--12-12----12-12----12------|--12-12----12-12----12------|
----------------------------|----------------------------|


----------------------------|----------------------------|
----------------------------|----------------------------|
----------------------------|----------------------------|
--------12-------12----12---|----------------------------|
--12-12----12-12----12------|--10-10-10-10-10-10-10-10---|
----------------------------|--10M10M10M10M10-10-10-10---|


----------------------------|----------------------------|
----------------------------|----------------------------|
--7--7--7--7--5--7--7--3L---|--3--3--3--3--3--3--3--3----|
--7--7--7--7--5--7--7--3L---|--3--3--3--3--3--3--3--3----|
--5--5--5--5--5--5--5--1L---|--1--1--1--1--1--0--1--0----|
----------------------------|----------------------------|


----------------------------|----------------------------|
----------------------------|----------------------------|
----------------------------|----------------------------|
--5--5--5--5--5--5--5--1L---|--1--1--1--1--1--1--1--1----|
--5--5--5--5--5--5--5--1L---|--1--1--1--1--1--1--1--1----|
--5--5--5--5--5--5--5--1L---|--1--1--1--1--1--1--1--1----|


----------------------------|----------------------------|
----------------------------|----------------------------|
--7--7--7--7--5--7--7--3L---|--3--3--3--3--3--3--3--3----|
--7--7--7--7--5--7--7--3L---|--3--3--3--3--3--3--3--3----|
--5--5--5--5--5--5--5--1L---|--1--1--1--1--1--0--1--0----|
----------------------------|----------------------------|


----------------------------|----------------------------|
----------------------------|----------------------------|
----------------------------|----------------------------|
--5--5--5--5--5--5--5--1L---|--1--1--1--1--1--1--1--1----|
--5--5--5--5--5--5--5--1L---|--1--1--1--1--1--1--1--1----|
--5--5--5--5--5--5--5--1L---|--1--1--1--1--1--1--1--1----|


----------------------------|----------------------------|-------|
----------------------------|----------------------------|-------|
----------------------------|----------------------------|-------|
--0--1--0-------------------|--0--1-----4-----1--0--1----|--0----|
--0--1--0-------------------|--0--1-----4-----1--0--1----|--0----|
--0--1--0-------------------|--0--1-----4-----1--0--1----|--0----|


----------------------------|----------------------------|
----------------------------|----------------------------|
--2--------4--------1-------|----------------------------|
--2--------4--------1-------|--0--1--0-------------------|
--0--------2----------------|--0--1--0-------------------|
----------------------------|--0--1--0-------------------|


----------------------------|-------|----------------------------|
----------------------------|-------|----------------------------|
----------------------------|-------|--2--------4--------1-------|
--0--1-----4-----1--0--1----|--0----|--2--------4--------1-------|
--0--1-----4-----1--0--1----|--0----|--0--------2----------------|
--0--1-----4-----1--0--1----|--0----|----------------------------|


----------------------------|----------------------------|-------|
----------------------------|----------------------------|-------|
----------------------------|----------------------------|-------|
--0--1--0-------------------|--0--1-----4-----1--0--1----|--0----|
--0--1--0-------------------|--0--1-----4-----1--0--1----|--0----|
--0--1--0-------------------|--0--1-----4-----1--0--1----|--0----|


----------------------------|----------------------------|
----------------------------|----------------------------|
--2--------4--------1-------|----------------------------|
--2--------4--------1-------|--0--1--0-------------------|
--0--------2----------------|--0--1--0-------------------|
----------------------------|--0--1--0-------------------|


----------------------------|----------|----------------------------|
----------------------------|----------|----------------------------|
----------------------------|----------|--2--------4--------1-------|
--0--1-----4-----1--0--1----|--0-------|--2--------4--------1-------|
--0--1-----4-----1--0--1----|--0--12s--|--0--------2----------------|
--0--1-----4-----1--0--1----|--0--12s--|----------------------------|


----------------------------||
----------------------------||
----------------------------||
--0--1--0-------------------||
--0--1--0-------------------||
--0--1--0-------------------||


[]
E |----------------------------|-------|----------------------------|-------|
B |----------------------------|-------|----------------------------|-------|
G |----------------------------|-------|----------------------------|-------|
D |--0--1--0L------------------|--0----|--0--1--0L------------------|--0----|
A |--0--1--0L------------------|--0----|--0--1--0L------------------|--0----|
D |--0--1--0L------------------|--0----|--0--1--0L------------------|--0----|


----------------------------|-------|----------------------------|
----------------------------|-------|----------------------------|
----------------------------|-------|----------------------------|
--0--1--0L------------------|--0----|--0--1--0-------------------|
--0--1--0L------------------|--0----|--0--1--0-------------------|
--0--1--0L------------------|--0----|--0--1--0-------------------|


----------------------------|
----------------------------|
--2--------4--------1-------|
--2--------4--------1-------|
--0--------2----------------|
----------------------------|


_________________________________________________________________________


[Josh Rand]
----------------------------------------------------|
----------------------------------------------------|
----------------------------------------------------|
----------------------------------------------------|
----------------------------------------------------|
--0M----0M----0M----0M----0M-0M-0M-0M-0M----0M------|


----------------------------------------------------|
----------------------------------------------------|
----------------------------------------------------|
----------------------------------------------------|
----------------------------------------------------|
--0M----0M----0M----0M----0M-0M-0M----0M-0M-0M------|


----------------------------------------------------|
----------------------------------------------------|
----------------------------------------------------|
----------------------------------------------------|
----------------------------------------------------|
--0M----0M----0M----0M----0M-0M-0M-0M-0M----0M------|


----------------------------------------------------|
----------------------------------------------------|
----------------------------------------------------|
----------------------------------------------------|
----------------------------------------------------|
--0M----0M----0M----0M----0M-0M-0M----0M-0M-0M------|


----------------------------------------------------|
----------------------------------------------------|
----------------------------------------------------|
----------------------------------------------------|
----------------------------------------------------|
--0M----0M----0M----0M----0M-0M-0M-0M-0M----0M------|


----------------------------------------------------|
----------------------------------------------------|
----------------------------------------------------|
----------------------------------------------------|
----------------------------------------------------|
--0M----0M----0M----0M----0M-0M-0M----0M-0M-0M------|


----------------------------------------------------|
----------------------------------------------------|
----------------------------------------------------|
----------------------------------------------------|
----------------------------------------------------|
--0M----0M----0M----0M----0M-0M-0M-0M-0M----0M------|


----------------------------|----------------------------|
----------------------------|----------------------------|
----------------------------|----------------------------|
----------------------------|----------------------------|
--10------------------------|--9-------------------------|
-----16-13-12-16-13-12-10---|-----0--0--12-0--13-0--0----|


----------------------------|----------------------------|
----------------------------|----------------------------|
----------------------------|----------------------------|
----------------------------|----------------------------|
----------------------------|--9-------------------------|
--12-16-8--13-12-13-0--0----|-----0--0--12-0--13-0--0----|


----------------------------|----------------------------|
----------------------------|----------------------------|
----------------------------|----------------------------|
----------------------------|----------------------------|
----------------------------|--9-------------------------|
--7--8--12-0--10-12-0--0----|-----0--0--12-0--13-0--0----|


----------------------------|----------------------------|
----------------------------|----------------------------|
----------------------------|----------------------------|
----------------------------|----------------------------|
----------------------------|--9-------------------------|
--12-16-8--13-12-13-0--0----|-----0--0--12-0--13-0--0----|


----------------------------|----------------------------|
----------------------------|----------------------------|
----------------------------|----------------------------|
----------------------------|----------------------------|
----------------------------|--9-------------------------|
--7--8--12-0--10-12-0--0----|-----0--0--12-0--13-0--0----|


----------------------------|----------------------------|
----------------------------|----------------------------|
----------------------------|----------------------------|
----------------------------|----------------------------|
----------------------------|--9-------------------------|
--12-16-8--13-12-13-0--0----|-----0--0--12-0--13-0--0----|


----------------------------|----------------------------|
----------------------------|----------------------------|
----------------------------|----------------------------|
----------------------------|----------------------------|
----------------------------|--9-------------------------|
--7--8--12-0--10-12-0--0----|-----0--0--12-0--13-0--0----|


----------------------------|----------------------------|
----------------------------|----------------------------|
----------------------------|----------------------------|
----------------------------|----------------------------|
----------------------------|--9-------------------------|
--12-16-8--13-12-13-0--0----|-----0--0--12-0--13-0--0----|


----------------------------|----------------------------|
----------------------------|----------------------------|
----------------------------|--2--2--2--3--3--3--3--3----|
----------------------------|--x--x--x--2--2--2--2--2----|
--1--0--1--3--1--0--1-------|--0--0--0--0--0--0--0--0----|
-----------------------0----|----------------------------|


----------------------------|----------------------------|
----------------------------|----------------------------|
--2--2--2--3--5--5--5--5----|--2--2--2--3--3--3--3--3----|
--x--x--x--2--x--x--x--x----|--x--x--x--2--2--2--2--2----|
--0--0--0--0--3--3--3--3----|--0--0--0--0--0--0--0--0----|
----------------------------|----------------------------|


----------------------------|----------------------------|
----------------------------|----------------------------|
--2--2--2--3--5--5--5--5----|--2--2--2--3--3--3--3--3----|
--x--x--x--2--x--x--x--x----|--x--x--x--2--2--2--2--2----|
--0--0--0--0--3--3--3--3----|--0--0--0--0--0--0--0--0----|
----------------------------|----------------------------|


----------------------------|----------------------------|
----------------------------|----------------------------|
--2--2--2--3--5--5--5--5----|--2--2--2--3--3--3--3--3----|
--x--x--x--2--x--x--x--x----|--x--x--x--2--2--2--2--2----|
--0--0--0--0--3--3--3--3----|--0--0--0--0--0--0--0--0----|
----------------------------|----------------------------|


----------------------------------------------------|
----------------------------------------------------|
----------------------------------------------------|
----------------------------------------------------|
--------------5-----------------------5-------------|
--2--3--5--3-----3--2--3--2--3--5--3----------------|


----------------------------|----------------------------|
----------------------------|----------------------------|
--7--7--7--7--7--7--7--3L---|--3--3--3--3--3--3--3--3----|
--7--7--7--7--7--7--7--3L---|--3--3--3--3--3--3--3--3----|
--5--5--5--5--5--5--5--1L---|--1--1--1--1--1--1--1--1----|
----------------------------|----------------------------|


----------------------------|----------------------------|
----------------------------|----------------------------|
----------------------------|----------------------------|
--5--5--5--5--5--5--5--1L---|--1--1--1--1--1--1--1--1----|
--5--5--5--5--5--5--5--1L---|--1--1--1--1--1--1--1--1----|
--5--5--5--5--5--5--5--1L---|--1--1--1--1--1--1--1--1----|


----------------------------|----------------------------|
----------------------------|----------------------------|
--7--7--7--7--7--7--7--3L---|--3--3--3--3--3--3--3--3----|
--7--7--7--7--7--7--7--3L---|--3--3--3--3--3--3--3--3----|
--5--5--5--5--5--5--5--1L---|--1--1--1--1--1--1--1--1----|
----------------------------|----------------------------|


----------------------------|----------------------------|
----------------------------|----------------------------|
----------------------------|----------------------------|
--5--5--5--5--5--5--5--1L---|--1--1--1--1--1--1--1--1----|
--5--5--5--5--5--5--5--1L---|--1--1--1--1--1--1--1--1----|
--5--5--5--5--5--5--5--1L---|--1--1--1--1--1--1--1--1----|


----------------------------|----------------------------|-------|
----------------------------|----------------------------|-------|
----------------------------|----------------------------|-------|
--0--1--0-------------------|--0--1-----4-----1--0--1----|--0----|
--0--1--0-------------------|--0--1-----4-----1--0--1----|--0----|
--0--1--0-------------------|--0--1-----4-----1--0--1----|--0----|


----------------------------|----------------------------|
----------------------------|----------------------------|
--2--------4--------1-------|----------------------------|
--2--------4--------1-------|--0--1--0-------------------|
--0--------2----------------|--0--1--0-------------------|
----------------------------|--0--1--0-------------------|


----------------------------|-------|----------------------------|
----------------------------|-------|----------------------------|
----------------------------|-------|--2--------4--------1-------|
--0--1-----4-----1--0--1----|--0----|--2--------4--------1-------|
--0--1-----4-----1--0--1----|--0----|--0--------2----------------|
--0--1-----4-----1--0--1----|--0----|----------------------------|


----------------------------------------------------|
----------------------------------------------------|
----------------------------------------------------|
----------------------------------------------------|
----------------------------------------------------|
--0M----0M----0M----0M----0M-0M-0M-0M-0M----0M------|


----------------------------------------------------|
----------------------------------------------------|
----------------------------------------------------|
----------------------------------------------------|
----------------------------------------------------|
--0M----0M----0M----0M----0M-0M-0M----0M-0M-0M------|


----------------------------------------------------|
----------------------------------------------------|
----------------------------------------------------|
----------------------------------------------------|
----------------------------------------------------|
--0M----0M----0M----0M----0M-0M-0M-0M-0M----0M------|


----------------------------------------------------|
----------------------------------------------------|
----------------------------------------------------|
----------------------------------------------------|
----------------------------------------------------|
--0M----0M----0M----0M----0M-0M-0M----0M-0M-0M------|


----------------------------------------------------|
----------------------------------------------------|
----------------------------------------------------|
----------------------------------------------------|
----------------------------------------------------|
--0M----0M----0M----0M----0M-0M-0M-0M-0M----0M------|


----------------------------------------------------|
----------------------------------------------------|
----------------------------------------------------|
----------------------------------------------------|
----------------------------------------------------|
--0M----0M----0M----0M----0M-0M-0M----0M-0M-0M------|


----------------------------------------------------|
----------------------------------------------------|
----------------------------------------------------|
----------------------------------------------------|
----------------------------------------------------|
--0M----0M----0M----0M----0M-0M-0M-0M-0M----0M------|


----------------------------------------------------|
----------------------------------------------------|
----------------------------------------------------|
----------------------------------------------------|
----------------------------------------------------|
--0M----0M----0M----0M----0M-0M-0M----0M-0M-0M------|


----------------------------|----------------------------|
----------------------------|----------------------------|
----------------------------|----------------------------|
----------------------------|----------------------------|
--9-------------------------|----------------------------|
-----0--0--12-0--13-0--0----|--12-16-8--13-12-13-0--0----|


----------------------------|----------------------------|
----------------------------|----------------------------|
----------------------------|----------------------------|
----------------------------|----------------------------|
--9-------------------------|----------------------------|
-----0--0--12-0--13-0--0----|--7--8--12-0--10-12-0--0----|


----------------------------|----------------------------|
----------------------------|----------------------------|
----------------------------|----------------------------|
----------------------------|----------------------------|
--9-------------------------|----------------------------|
-----0--0--12-0--13-0--0----|--12-16-8--13-12-13-0--0----|


----------------------------|----------------------------|
----------------------------|----------------------------|
----------------------------|----------------------------|
----------------------------|----------------------------|
--9-------------------------|----------------------------|
-----0--0--12-0--13-0--0----|--7--8--12-0--10-12-0--0----|


----------------------------|----------------------------|
----------------------------|----------------------------|
----------------------------|----------------------------|
----------------------------|----------------------------|
--9-------------------------|----------------------------|
-----0--0--12-0--13-0--0----|--12-16-8--13-12-13-0--0----|


----------------------------|----------------------------|
----------------------------|----------------------------|
----------------------------|----------------------------|
----------------------------|----------------------------|
--9-------------------------|----------------------------|
-----0--0--12-0--13-0--0----|--7--8--12-0--10-12-0--0----|


----------------------------|----------------------------|
----------------------------|----------------------------|
----------------------------|----------------------------|
----------------------------|----------------------------|
--9-------------------------|----------------------------|
-----0--0--12-0--13-0--0----|--12-16-8--13-12-13-0--0----|


----------------------------|----------------------------|
----------------------------|----------------------------|
----------------------------|----------------------------|
----------------------------|----------------------------|
--9-------------------------|--1--0--1--3--1--0--1-------|
-----0--0--12-0--13-0--0----|-----------------------0----|


----------------------------|----------------------------|
----------------------------|----------------------------|
--2--2--2--3--3--3--3--3----|--2--2--2--3--5--5--5--5----|
--x--x--x--2--2--2--2--2----|--x--x--x--2--x--x--x--x----|
--0--0--0--0--0--0--0--0----|--0--0--0--0--3--3--3--3----|
----------------------------|----------------------------|


----------------------------|----------------------------|
----------------------------|----------------------------|
--2--2--2--3--3--3--3--3----|--2--2--2--3--5--5--5--5----|
--x--x--x--2--2--2--2--2----|--x--x--x--2--x--x--x--x----|
--0--0--0--0--0--0--0--0----|--0--0--0--0--3--3--3--3----|
----------------------------|----------------------------|


----------------------------|----------------------------|
----------------------------|----------------------------|
--2--2--2--3--3--3--3--3----|--2--2--2--3--5--5--5--5----|
--x--x--x--2--2--2--2--2----|--x--x--x--2--x--x--x--x----|
--0--0--0--0--0--0--0--0----|--0--0--0--0--3--3--3--3----|
----------------------------|----------------------------|


----------------------------|
----------------------------|
--2--2--2--3--3--3--3--3----|
--x--x--x--2--2--2--2--2----|
--0--0--0--0--0--0--0--0----|
----------------------------|


----------------------------------------------------|
----------------------------------------------------|
----------------------------------------------------|
----------------------------------------------------|
--------------5-----------------------5-------------|
--2--3--5--3-----3--2--3--2--3--5--3----------------|


----------------------------|----------------------------|
----------------------------|----------------------------|
--7--7--7--7--7--7--7--3L---|--3--3--3--3--3--3--3--3----|
--7--7--7--7--7--7--7--3L---|--3--3--3--3--3--3--3--3----|
--5--5--5--5--5--5--5--1L---|--1--1--1--1--1--1--1--1----|
----------------------------|----------------------------|


----------------------------|----------------------------|
----------------------------|----------------------------|
----------------------------|----------------------------|
--5--5--5--5--5--5--5--1L---|--1--1--1--1--1--1--1--1----|
--5--5--5--5--5--5--5--1L---|--1--1--1--1--1--1--1--1----|
--5--5--5--5--5--5--5--1L---|--1--1--1--1--1--1--1--1----|


----------------------------|----------------------------|
----------------------------|----------------------------|
--7--7--7--7--7--7--7--3L---|--3--3--3--3--3--3--3--3----|
--7--7--7--7--7--7--7--3L---|--3--3--3--3--3--3--3--3----|
--5--5--5--5--5--5--5--1L---|--1--1--1--1--1--1--1--1----|
----------------------------|----------------------------|


----------------------------|----------------------------|
----------------------------|----------------------------|
----------------------------|----------------------------|
--5--5--5--5--5--5--5--1L---|--1--1--1--1--1--1--1--1----|
--5--5--5--5--5--5--5--1L---|--1--1--1--1--1--1--1--1----|
--5--5--5--5--5--5--5--1L---|--1--1--1--1--1--1--1--1----|


----------------------------|----------------------------|-------|
----------------------------|----------------------------|-------|
----------------------------|----------------------------|-------|
--0--1--0-------------------|--0--1-----4-----1--0--1----|--0----|
--0--1--0-------------------|--0--1-----4-----1--0--1----|--0----|
--0--1--0-------------------|--0--1-----4-----1--0--1----|--0----|


----------------------------|----------------------------|
----------------------------|----------------------------|
--2--------4--------1-------|----------------------------|
--2--------4--------1-------|--0--1--0-------------------|
--0--------2----------------|--0--1--0-------------------|
----------------------------|--0--1--0-------------------|


----------------------------|-------|----------------------------|
----------------------------|-------|----------------------------|
----------------------------|-------|--2--------4--------1-------|
--0--1-----4-----1--0--1----|--0----|--2--------4--------1-------|
--0--1-----4-----1--0--1----|--0----|--0--------2----------------|
--0--1-----4-----1--0--1----|--0----|----------------------------|


----------------------------------------------------|
----------------------------------------------------|
----------------------------------------------------|
----------------------------------------------------|
----------------------------------------------------|
--0M----0M----0M----0M----0M-0M-0M-0M-0M----0M------|


----------------------------------------------------|
----------------------------------------------------|
----------------------------------------------------|
----------------------------------------------------|
----------------------------------------------------|
--0M----0M----0M----0M----0M-0M-0M----0M-0M-0M------|


----------------------------------------------------|
----------------------------------------------------|
----------------------------------------------------|
----------------------------------------------------|
----------------------------------------------------|
--0M----0M----0M----0M----0M-0M-0M-0M-0M----0M------|


----------------------------------------------------|
----------------------------------------------------|
----------------------------------------------------|
----------------------------------------------------|
----------------------------------------------------|
--0M----0M----0M----0M----0M-0M-0M----0M-0M-0M------|


----------------------------------------------------|
----------------------------------------------------|
----------------------------------------------------|
----------------------------------------------------|
----------------------------------------------------|
--0M----0M----0M----0M----0M-0M-0M-0M-0M----0M------|


----------------------------------------------------|
----------------------------------------------------|
----------------------------------------------------|
----------------------------------------------------|
----------------------------------------------------|
--0M----0M----0M----0M----0M-0M-0M----0M-0M-0M------|


----------------------------------------------------|
----------------------------------------------------|
----------------------------------------------------|
----------------------------------------------------|
----------------------------------------------------|
--0M----0M----0M----0M----0M-0M-0M-0M-0M----0M------|


----------------------------------------------------|
----------------------------------------------------|
----------------------------------------------------|
----------------------------------------------------|
----------------------------------------------------|
--0M----0M----0M----0M----0M-0M-0M----0M-0M-0M------|


----------------------------|----------------------------|
----------------------------|----------------------------|
----------------------------|----------------------------|
----------------------------|----------------------------|
----------------------------|----------------------------|
--0M-0M-0M-0M-0M-0M-0M-0M---|--0M-0M-0M-0M-0M-0M-0M-0M---|


----------------------------|----------------------------|
----------------------------|----------------------------|
----------------------------|----------------------------|
----------------------------|----------------------------|
----------------------------|--------------5-----1-------|
--0M-0M-0M-0M-0M-0M-0M-0M---|--0M-0M-0M-0M-5-----1-------|


----------------------------|----------------------------|
----------------------------|----------------------------|
----------------------------|----------------------------|
----------------------------|----------------------------|
----------------------------|----------------------------|
--0M-0M-0M-0M-0M-0M-0M-0M---|--0M-0M-0M-0M-0M-0M-0M-0M---|


----------------------------|----------------------------|
----------------------------|----------------------------|
----------------------------|----------------------------|
----------------------------|----------------------------|
----------------------------|--------------5-----1-------|
--0M-0M-0M-0M-0M-0M-0M-0M---|--0M-0M-0M-0M-5-----1-------|


----------------------------------------------------|
----------------------------------------------------|
----------------------------------------------------|
----------------------------------------------------|
----------------------------------------------------|
--0M-0M-0M----0M-0M-0M----0M-0M-0M----0M-0M-0M------|


----------------------------------------------------|
----------------------------------------------------|
----------------------------------------------------|
----------------------------------------------------|
----------------------------------------------------|
--0M-0M-0M----0M-0M-0M----0M-0M-0M----0M-0M-0M------|


----------------------------------------------------|
----------------------------------------------------|
----------------------------------------------------|
----------------------------------------------------|
----------------------------------------------------|
--0M-0M-0M----0M-0M-0M----0M-0M-0M----0M-0M-0M------|


----------------------------------------------------|
----------------------------------------------------|
----------------------------------------------------|
----------------------------------------------------|
--------------------------5-----------1-------------|
--0M-0M-0M----0M-0M-0M----5-----------1-------------|


----------------------------------------------------|
----------------------------------------------------|
----------------------------------------------------|
----------------------------------------------------|
----------------------------------------------------|
--0M-0M-0M----0M-0M-0M----0M-0M-0M----0M-0M-0M------|


----------------------------------------------------|
----------------------------------------------------|
----------------------------------------------------|
----------------------------------------------------|
----------------------------------------------------|
--0M-0M-0M----0M-0M-0M----0M-0M-0M----0M-0M-0M------|


----------------------------------------------------|
----------------------------------------------------|
----------------------------------------------------|
----------------------------------------------------|
----------------------------------------------------|
--0M-0M-0M----0M-0M-0M----0M-0M-0M----0M-0M-0M------|


----------------------------------------------------|
----------------------------------------------------|
----------------------------------------------------|
----------------------------------------------------|
--------------------------5-----------1-------------|
--0M-0M-0M----0M-0M-0M----5-----------1-------------|


----------------------------|----------------------------|
----------------------------|----------------------------|
----------------------------|----------------------------|
----------------------------|----------------------------|
--------12-------12----12---|--------13-------13----13---|
--12-12----12-12----12------|--12-12----12-12----12------|


----------------------------|----------------------------|
----------------------------|----------------------------|
----------------------------|----------------------------|
----------------------------|----------------------------|
--------10-------10----10---|--------10-------10----10---|
--12-12----12-12----12------|--13-13----13-13----13------|


----------------------------|----------------------------|
----------------------------|----------------------------|
----------------------------|----------------------------|
----------------------------|----------------------------|
--------12-------12----12---|--------13-------13----13---|
--12-12----12-12----12------|--12-12----12-12----12------|


----------------------------|----------------------------|
----------------------------|----------------------------|
----------------------------|----------------------------|
----------------------------|----------------------------|
--------10-------10----10---|--10-10-10-10-10-10-10-10---|
--12-12----12-12----12------|--10M10M10M10M10-10-10-10---|


----------------------------|----------------------------|
----------------------------|----------------------------|
--7--7--7--7--7--7--7--3L---|--3--3--3--3--3--3--3--3----|
--7--7--7--7--7--7--7--3L---|--3--3--3--3--3--3--3--3----|
--5--5--5--5--5--5--5--1L---|--1--1--1--1--1--1--1--1----|
----------------------------|----------------------------|


----------------------------|----------------------------|
----------------------------|----------------------------|
----------------------------|----------------------------|
--5--5--5--5--5--5--5--1L---|--1--1--1--1--1--1--1--1----|
--5--5--5--5--5--5--5--1L---|--1--1--1--1--1--1--1--1----|
--5--5--5--5--5--5--5--1L---|--1--1--1--1--1--1--1--1----|


----------------------------|----------------------------|
----------------------------|----------------------------|
--7--7--7--7--7--7--7--3L---|--3--3--3--3--3--3--3--3----|
--7--7--7--7--7--7--7--3L---|--3--3--3--3--3--3--3--3----|
--5--5--5--5--5--5--5--1L---|--1--1--1--1--1--1--1--1----|
----------------------------|----------------------------|


----------------------------|----------------------------|
----------------------------|----------------------------|
----------------------------|----------------------------|
--5--5--5--5--5--5--5--1L---|--1--1--1--1--1--1--1--1----|
--5--5--5--5--5--5--5--1L---|--1--1--1--1--1--1--1--1----|
--5--5--5--5--5--5--5--1L---|--1--1--1--1--1--1--1--1----|


----------------------------|----------------------------|-------|
----------------------------|----------------------------|-------|
----------------------------|----------------------------|-------|
--0--1--0-------------------|--0--1-----4-----1--0--1----|--0----|
--0--1--0-------------------|--0--1-----4-----1--0--1----|--0----|
--0--1--0-------------------|--0--1-----4-----1--0--1----|--0----|


----------------------------|----------------------------|
----------------------------|----------------------------|
--2--------4--------1-------|----------------------------|
--2--------4--------1-------|--0--1--0-------------------|
--0--------2----------------|--0--1--0-------------------|
----------------------------|--0--1--0-------------------|


----------------------------|-------|----------------------------|
----------------------------|-------|----------------------------|
----------------------------|-------|--2--------4--------1-------|
--0--1-----4-----1--0--1----|--0----|--2--------4--------1-------|
--0--1-----4-----1--0--1----|--0----|--0--------2----------------|
--0--1-----4-----1--0--1----|--0----|----------------------------|


----------------------------|----------------------------|-------|
----------------------------|----------------------------|-------|
----------------------------|----------------------------|-------|
--0--1--0-------------------|--0--1-----4-----1--0--1----|--0----|
--0--1--0-------------------|--0--1-----4-----1--0--1----|--0----|
--0--1--0-------------------|--0--1-----4-----1--0--1----|--0----|


----------------------------|----------------------------|
----------------------------|----------------------------|
--2--------4--------1-------|----------------------------|
--2--------4--------1-------|--0--1--0-------------------|
--0--------2----------------|--0--1--0-------------------|
----------------------------|--0--1--0-------------------|


----------------------------|-------|----------------------------|
----------------------------|-------|----------------------------|
----------------------------|-------|--2--------4--------1-------|
--0--1-----4-----1--0--1----|--0----|--2--------4--------1-------|
--0--1-----4-----1--0--1----|--0----|--0--------2----------------|
--0--1-----4-----1--0--1----|--0----|----------------------------|


----------------------------||
----------------------------||
----------------------------||
--0--1--0-------------------||
--0--1--0-------------------||
--0--1--0-------------------||





Comments


Popular Stone Sour tabs & chords
Come Whatever May 2 Bass Tabs
Socio 2 Bass Tabs
Imperfect 1 Chords
1st Person Tabs
Bother 4 Tabs
Bother 7 Tabs
Hesitate 3 Tabs
Reborn Tabs
Through Glass Tabs
Imperfect Ukulele


Song lyrics



↑ Back to top | Tablatures and chords are parodies/interpretations of the original songs. You may use it for private study, scholarship, research or language learning purposes only
© 2014 AZChords.com Contact us | Privacy policy | DMCA | Add/correct tabs | Request tabs | Top 50 tabs