>
 >
Inhale 4

Inhale 4 Guitar Tabs

Stone  Sour - Inhale 4 chords, tabs, tablatures, lyrics

Guitar lessons | Add/correct | Request | Top 50 tabs Artists:  A B C D E F G H I J K L M N O P Q R S T U V W X Y Z 0-9

Inhale 4 Guitar Tabs – Stone Sour

CD, Sheet music, Poster

Do you like Inhale 4? Share with your friends now
Bass TabsBass Tabs v2Drum TabsTabsTabs v2Tabs v3Tabs v4Tabs v5Tabs v6Tabs v7Tabs v8
#------------------------------------------------------------------------------##

                                     INHALE
                            As recorded by Stone Sour
                        (From the 2002 Album STONE SOUR)

Words and Music by Stone Sour

          D5                   Bb5                  A5
      x 5 7 7 x x          8 8 8 x x x          7 7 7 0 0 0

Gtr I (B F# B E G# C#) - 'Jim Root'
Gtr II (B F# B E G# C#) - 'Josh Rand'
Gtr III (B F# B E G# C#) - 'Doubled Rhythm Guitar'

 Intro
  Moderately slow Rock Q=100
  N.C.
 4/4
  Gtr I
  E E E E +E  Q  +E     E E E E +E  Q  +E
|---------------------|---------------------|
|---------------------|---------------------|
|---------------------|---------------------|
|---7-6S2-(2)-3--(3)\-|---7-6S2-(2)-3--(3)\-|
|-5-------------------|-5-------------------|
|---------------------|---------------------|


  D5                      C5
  E E E E +E  Q  +E       E E E E +E  Q  +E
|-----------------------|-----------------------|
|-----------------------|-----------------------|
|-----------------------|-----------------------|
|---7-6S2-(2)-3--(3)\---|---7-6S2-(2)-3--(3)\---|
|-5---------------------|-5---------------------|
|-----------------------|-----------------------|
|
| Gtr II
| H       +Q.     S   S   H       +Q.     S   S
|-----------------------|-----------------------|
|-----------------------|-----------------------|
|-7-------(7)-----x---x-|-5-------(5)-----x---x-|
|-7-------(7)-----x---x-|-5-------(5)-----x---x-|
|-5-------(5)-----x---x-|-3-------(3)-----x---x-|
|-0-------(0)-----------|-----------------------|


  G5                      Bb5
  E E E E +E  Q  +E        E E E E +E      Q       +E
|-----------------------|--------------------------------|
|-----------------------|--------------------------------|
|-----------------------|--------------------------------|
|---7-6S2-(2)-3--(3)\---|----7-6S2-(2)-----3-------(3)\--|
|-5---------------------|--5-----------------------------|
|-----------------------|--------------------------------|
|
| H       +Q.     S   S    H       +S   S  E  S  S  E
|-----------------------|--------------------------------|
|-----------------------|--------------------------------|
|-----------------------|--------------10-10-10-10-10----|
|-5-------(5)-----5---5-|-/8-------(8)--x--x--x--x--x----|
|-5-------(5)-----5---5-|-/8-------(8)--8--8--8--8--8----|
|-5-------(5)-----5---5-|-/8-------(8)-------------------|


  D5A5AbE5    F5     D5A5AbE5    F5     D5A5AbE5    F5     D5A5AbE5    F5
  Gtrs I, II
  E E E E +E  Q.     E E E E +E  Q.     E E E E +E  Q.     E E E E +E  Q  S S
|------------------|------------------|------------------|--------------------||
|------------------|------------------|------------------|--------------------||
|------------------|------------------|------------------|--------------------||
|-0-7-6S2-(2)-3----|-0-7-6S2-(2)-3----|-0-7-6S2-(2)-3----|-0-7-6S2-(2)-3------||
|-0-7-6S2-(2)-3----|-0-7-6S2-(2)-3----|-0-7-6S2-(2)-3----|-0-7-6S2-(2)-3------||
|-0-7-6S2-(2)-3----|-0-7-6S2-(2)-3----|-0-7-6S2-(2)-3----|-0-7-6S2-(2)-3--0-0-||


   Verse
    D5                                         Bb5      A5        D5
    Gtr I
    W          +H     +Q.   S S   W             E  E  E E +E  E E S S
    |           |      |    | |   |             |  |  | |  |  | | | |
    /           /      /    / /   /             /  /  / /  /  / / / /

    Gtr II
    W          +H     +Q.   S S   W          a  E  E  E E +Q.     S S
||-----------|------------------|----------|--------------------------|
||o----------|------------------|----------|--------------------------|
||--7--------|-(7)----(7)---7-7-|-7--------|-7s10-10-10-9-(9)-----7-7-|
||--7--------|-(7)----(7)---7-7-|-7--------|----------------------7-7-|
||o-5--------|-(5)----(5)---5-5-|-5--------|-5s=8--8--8-7-(7)-----5-5-|
||-----------|------------------|----------|--------------------------|


  D5                                         Bb5         A5            D5
  W          +H     +Q.   S S   W             E  E  E     E  +E   E  E S S
  |           |      |    | |   |             |  |  |     |   |   |  | | |
  /           /      /    / /   /             /  /  /     /   /   /  / / /

  W          +H     +Q.   S S   W          a  E  E  E  a  E  +E   E  E S S
|----------|------------------|----------|---------------------------------|
|----------|------------------|----------|---------------------------------|
|-7--------|-(7)----(7)---7-7-|-7--------|-7s10-10-10-10s12-(12)-12-10-7-7-|
|-7--------|-(7)----(7)---7-7-|-7--------|-----------------------------7-7-|
|-5--------|-(5)----(5)---5-5-|-5--------|-5s=8--8--8--8s10-(10)-10--8-5-5-|
|----------|------------------|----------|---------------------------------|


  D5                                         Bb5      A5
  W          +H     +Q.   S S   W             E  E  E E +E  E Q
  |           |      |    | |   |             |  |  | |  |  | |
  /           /      /    / /   /             /  /  / /  /  / /

  W          +H     +Q.   S S   W          a  E  E  E E +E  E Q
|----------|------------------|----------|----------------------||
|----------|------------------|----------|----------------------||
|-7--------|-(7)----(7)---7-7-|-7--------|-7s10-10-10-9-(9)-9-9-||
|-7--------|-(7)----(7)---7-7-|-7--------|----------------------||
|-5--------|-(5)----(5)---5-5-|-5--------|-5s=8--8--8-7-(7)-7-7-||
|----------|------------------|----------|----------------------||


 Pre-Chorus
  Gsus2
  Gtrs I, II
  PM------------------------------------------------------------------|
  E E E E E E E E   E E E E E E E E   E E E E E E E E   E E E E E E E E
|-----------------|-----------------|-----------------|-----------------|
|-----------------|-----------------|-----------------|-----------------|
|-----------------|-----------------|-----------------|-----------------|
|-7-7-7-7-7-7-7-7-|-7-7-7-7-7-7-7-7-|-7-7-7-7-7-7-7-7-|-7-7-7-7-7-7-7-7-|
|-5-5-5-5-5-5-5-5-|-5-5-5-5-5-5-5-5-|-5-5-5-5-5-5-5-5-|-5-5-5-5-5-5-5-5-|
|-5-5-5-5-5-5-5-5-|-5-5-5-5-5-5-5-5-|-5-5-5-5-5-5-5-5-|-5-5-5-5-5-5-5-5-|


 Chorus
  D5                      C5
  Gtr I
  E E E E +E  Q  +E       E E E E +E  Q  +E
|-----------------------|-----------------------|
|-----------------------|-----------------------|
|-----------------------|-----------------------|
|---7-6S2-(2)-3--(3)\---|---7-6S2-(2)-3--(3)\---|
|-5---------------------|-5---------------------|
|-----------------------|-----------------------|
|
| Gtrs II, III
| H       +Q.     S   S   H       +Q.     S   S
|-----------------------|-----------------------|
|-----------------------|-----------------------|
|-7-------(7)-----x---x-|-5-------(5)-----x---x-|
|-7-------(7)-----x---x-|-5-------(5)-----x---x-|
|-5-------(5)-----x---x-|-3-------(3)-----x---x-|
|-0-------(0)-----------|-----------------------|


  G5                      Bb5
  E E E E +E  Q  +E        E E E E +E      Q       +E
|-----------------------|--------------------------------|
|-----------------------|--------------------------------|
|-----------------------|--------------------------------|
|---7-6S2-(2)-3--(3)\---|----7-6S2-(2)-----3-------(3)\--|
|-5---------------------|--5-----------------------------|
|-----------------------|--------------------------------|
|
| H       +Q.     S   S    H       +S   S  E  S  S  E
|-----------------------|--------------------------------|
|-----------------------|--------------------------------|
|-----------------------|--------------10-10-10-10-10----|
|-5-------(5)-----5---5-|-/8-------(8)--x--x--x--x--x----|
|-5-------(5)-----5---5-|-/8-------(8)--8--8--8--8--8----|
|-5-------(5)-----5---5-|-/8-------(8)-------------------|


  1.
  D5                      C5
  E E E E +E  Q  +E       E E E E +E  Q  +E
|-----------------------|-----------------------|
|-----------------------|-----------------------|
|-----------------------|-----------------------|
|---7-6S2-(2)-3--(3)\---|---7-6S2-(2)-3--(3)\---|
|-5---------------------|-5---------------------|
|-----------------------|-----------------------|
|
| H       +Q.     S   S   H       +Q.     S   S
|-----------------------|-----------------------|
|-----------------------|-----------------------|
|-7-------(7)-----x---x-|-5-------(5)-----x---x-|
|-7-------(7)-----x---x-|-5-------(5)-----x---x-|
|-5-------(5)-----x---x-|-3-------(3)-----x---x-|
|-0-------(0)-----------|-----------------------|


  G5                      Bb5
  E E E E +E  Q  +E        E E E E +E      Q       +E
|-----------------------|---------------------------------||
|-----------------------|--------------------------------o||
|-----------------------|---------------------------------||
|---7-6S2-(2)-3--(3)\---|----7-6S2-(2)-----3-------(3)\---||
|-5---------------------|--5-----------------------------o||
|-----------------------|---------------------------------||
|
| H       +Q.     S   S    H       +S   S  E  S  S  E
|-----------------------|---------------------------------||
|-----------------------|--------------------------------o||
|-----------------------|--------------10-10-10-10-10-----||
|-5-------(5)-----5---5-|-/8-------(8)--x--x--x--x--x-----||
|-5-------(5)-----5---5-|-/8-------(8)--8--8--8--8--8----o||
|-5-------(5)-----5---5-|-/8-------(8)--------------------||


  2.
  D5                    C5
  Gtrs II, III
  H    +E  S S a  E E   H    +E  S S a  E E
|---------------------|---------------------|
|---------------------|---------------------|
|-7----(7)-7-7-7s10-9-|-5----(5)-5-5-5s10-9-|
|-7----(7)------------|-x----(x)-x-x-x------|
|-5----(5)-5-5-5s=8-7-|-3----(3)-3-3-3s=8-7-|
|---------------------|---------------------|


  G5            Bb5
  H.      E E   Q.   E +S   S  E  S  S  E
|-------------|---------------------------|
|-------------|---------------------------|
|-------------|------------10-10-10-10-10-|
|-5-----------|-8----8-(8)----------------|
|-5-----------|-8----8-(8)--8--8--8--8--8-|
|-5-------5-7-|-8----8-(8)----------------|


  D5
  Gtrs I, II
  W          +W           +W
|----------|------------|------------|
|----------|------------|------------|
|-7--------|-(7)--------|-(7)--------|
|-7--------|-(7)--------|-(7)--------|
|-5--------|-(5)--------|-(5)--------|
|-0--------|-(0)--------|-(0)--------|


               Bb5       C5
              3/4
  +W           S S S S E  S  S  S  S E
|------------|----------------------------||
|------------|----------------------------||
|-(7)--------|----------------------------||
|-(7)--------|-8-8-8-8---10-10-10-10------||
|-(5)--------|-8-8-8-8---10-10-10-10------||
|-(0)--------|-8-8-8-8---10-10-10-10------||


 Bridge
  G5           Bb5          C5
 4/4
  W          a E. S +S  S a  E  S  E  S  E  E
|----------|----------------------------------|
|----------|----------------------------------|
|----------|----------------------------------|
|-5--------|-5s8--8-(8)-8-8s10-10-10-10-10-10-|
|-5--------|-5s8--8-(8)-8-8s10-10-10-10-10-10-|
|-5--------|-5s8--8-(8)-8-8s10-10-10-10-10-10-|


  G5         Bb5       C5
            3/4
  W          S S S S E  S  S  S  S E
|----------|-------------------------|
|----------|-------------------------|
|----------|-------------------------|
|-5--------|-8-8-8-8---10-10-10-10---|
|-5--------|-8-8-8-8---10-10-10-10---|
|-5--------|-8-8-8-8---10-10-10-10---|


  G5           Bb5          C5                  G5
 4/4
                                                           PM--------|
  W          a E. S +S  S a  E  S  E  S  E  E   W          E E E E E E E E
|----------|----------------------------------|----------|------------------|
|----------|----------------------------------|----------|------------------|
|----------|----------------------------------|----------|------------------|
|-5--------|-5s8--8-(8)-8-8s10-10-10-10-10-10-|-5--------|-5-5-5-5-5-5-5-5--|
|-5--------|-5s8--8-(8)-8-8s10-10-10-10-10-10-|-5--------|-5-5-5-5-5-5-5-5--|
|-5--------|-5s8--8-(8)-8-8s10-10-10-10-10-10-|-5--------|-5-5-5-5-5-5-5-5--|


                Chorus
                 D5                      C5
  Gtr I
  W              E E E E +E  Q  +E       E E E E +E  Q  +E
|-------------||-----------------------|-----------------------|
|-------------||-----------------------|-----------------------|
|-------------||-----------------------|-----------------------|
|-------------||---7-6S2-(2)-3--(3)\---|---7-6S2-(2)-3--(3)\---|
|-------------||-5---------------------|-5---------------------|
|-------------||-----------------------|-----------------------|
|
| Gtrs II, III
| E E Q  H       H       +Q.     S   S   H       +Q.     S   S
|-------------||-----------------------|-----------------------|
|-------------||-----------------------|-----------------------|
|-------------||-7-------(7)-----x---x-|-5-------(5)-----x---x-|
|-5-----------||-7-------(7)-----x---x-|-5-------(5)-----x---x-|
|-5-----------||-5-------(5)-----x---x-|-3-------(3)-----x---x-|
|-5-----------||-0-------(0)-----------|-----------------------|


  G5                      Bb5
  E E E E +E  Q  +E        E E E E +E      Q       +E
|-----------------------|--------------------------------|
|-----------------------|--------------------------------|
|-----------------------|--------------------------------|
|---7-6S2-(2)-3--(3)\---|----7-6S2-(2)-----3-------(3)\--|
|-5---------------------|--5-----------------------------|
|-----------------------|--------------------------------|
|
| H       +Q.     S   S    H       +S   S  E  S  S  E
|-----------------------|--------------------------------|
|-----------------------|--------------------------------|
|-----------------------|--------------10-10-10-10-10----|
|-5-------(5)-----5---5-|-/8-------(8)--x--x--x--x--x----|
|-5-------(5)-----5---5-|-/8-------(8)--8--8--8--8--8----|
|-5-------(5)-----5---5-|-/8-------(8)-------------------|


  D5                      C5
  E E E E +E  Q  +E       E E E E +E  Q  +E
|-----------------------|-----------------------|
|-----------------------|-----------------------|
|-----------------------|-----------------------|
|---7-6S2-(2)-3--(3)\---|---7-6S2-(2)-3--(3)\---|
|-5---------------------|-5---------------------|
|-----------------------|-----------------------|
|
| H       +Q.     S   S   H       +Q.     S   S
|-----------------------|-----------------------|
|-----------------------|-----------------------|
|-7-------(7)-----x---x-|-5-------(5)-----x---x-|
|-7-------(7)-----x---x-|-5-------(5)-----x---x-|
|-5-------(5)-----x---x-|-3-------(3)-----x---x-|
|-0-------(0)-----------|-----------------------|


  G5                      Bb5
  E E E E +E  Q  +E        E E E E +E      Q       +E
|-----------------------|--------------------------------|
|-----------------------|--------------------------------|
|-----------------------|--------------------------------|
|---7-6S2-(2)-3--(3)\---|----7-6S2-(2)-----3-------(3)\--|
|-5---------------------|--5-----------------------------|
|-----------------------|--------------------------------|
|
| H       +Q.     S   S    H       +S   S  E  S  S  E
|-----------------------|--------------------------------|
|-----------------------|--------------------------------|
|-----------------------|--------------10-10-10-10-10----|
|-5-------(5)-----5---5-|-/8-------(8)--x--x--x--x--x----|
|-5-------(5)-----5---5-|-/8-------(8)--8--8--8--8--8----|
|-5-------(5)-----5---5-|-/8-------(8)-------------------|


  D5                          C5
  E E E E +E  Q        +E     E E E E +E  Q        +E
|---------------------------|---------------------------|
|---------------------------|---------------------------|
|---------------------------|---------------------------|
|---7-6S2-(2)-3--------(3)\-|---7-6S2-(2)-3--------(3)\-|
|-5-------------------------|-5-------------------------|
|---------------------------|---------------------------|
|
| H       +E  S S a  E  E     H       +E  S S a  E  E
|---------------------------|---------------------------|
|---------------------------|---------------------------|
|-7-------(7)-7-7-7s10--9---|-5-------(5)-5-5-5s10--9---|
|-7-------(7)---------------|-x-------(x)-x-x-x---------|
|-5-------(5)-5-5-5s=8--7---|-3-------(3)-3-3-3s=8--7---|
|---------------------------|---------------------------|


  G5                      Bb5
  E  E E E +E  Q   +E     E  E E E +E      Q       +E
|-----------------------|-------------------------------|
|-----------------------|-------------------------------|
|-----------------------|-------------------------------|
|----7-6S2-(2)-3---(3)\-|----7-6S2-(2)-----3-------(3)\-|
|-5---------------------|-5-----------------------------|
|-----------------------|-------------------------------|
|
| H.             E  E     Q.     E +S   S  E  S  S  E
|-----------------------|-------------------------------|
|-----------------------|-------------------------------|
|-----------------------|--------------10-10-10-10-10---|
|-5---------------------|-8------8-(8)------------------|
|-5---------------------|-8------8-(8)--8--8--8--8--8---|
|-5--------------5--7---|-8------8-(8)------------------|


  D5                      C5
  E E E E +E  Q  +E       E E E E +E  Q  +E
|-----------------------|-----------------------|
|-----------------------|-----------------------|
|-----------------------|-----------------------|
|---7-6S2-(2)-3--(3)\---|---7-6S2-(2)-3--(3)\---|
|-5---------------------|-5---------------------|
|-----------------------|-----------------------|
|
| H       +Q.     S   S   H       +Q.     S   S
|-----------------------|-----------------------|
|-----------------------|-----------------------|
|-7-------(7)-----x---x-|-5-------(5)-----x---x-|
|-7-------(7)-----x---x-|-5-------(5)-----x---x-|
|-5-------(5)-----x---x-|-3-------(3)-----x---x-|
|-0-------(0)-----------|-----------------------|


  G5                      Bb5
  E E E E +E  Q  +E        E E E E +E      Q       +E
|-----------------------|--------------------------------||
|-----------------------|--------------------------------||
|-----------------------|--------------------------------||
|---7-6S2-(2)-3--(3)\---|----7-6S2-(2)-----3-------(3)\--||
|-5---------------------|--5-----------------------------||
|-----------------------|--------------------------------||
|
| H       +Q.     S   S    H       +S   S  E  S  S  E
|-----------------------|--------------------------------||
|-----------------------|--------------------------------||
|-----------------------|--------------10-10-10-10-10----||
|-5-------(5)-----5---5-|-/8-------(8)--x--x--x--x--x----||
|-5-------(5)-----5---5-|-/8-------(8)--8--8--8--8--8----||
|-5-------(5)-----5---5-|-/8-------(8)-------------------||


 Outro
  D5A5AbE5    F5     D5A5AbE5    F5     D5A5AbE5    F5     D5A5AbE5    F5
  Gtrs I, II
  E E E E +E  Q.     E E E E +E  Q.     E E E E +E  Q.     E E E E +E  Q  S S
|------------------|------------------|------------------|--------------------||
|------------------|------------------|------------------|--------------------||
|------------------|------------------|------------------|--------------------||
|-0-7-6S2-(2)-3----|-0-7-6S2-(2)-3----|-0-7-6S2-(2)-3----|-0-7-6S2-(2)-3------||
|-0-7-6S2-(2)-3----|-0-7-6S2-(2)-3----|-0-7-6S2-(2)-3----|-0-7-6S2-(2)-3------||
|-0-7-6S2-(2)-3----|-0-7-6S2-(2)-3----|-0-7-6S2-(2)-3----|-0-7-6S2-(2)-3--0-0-||


  D5
  W          +W           +W           +W           +W
|----------|------------|------------|------------|--------*|
|----------|------------|------------|------------|--------*|
|-7--------|-(7)--------|-(7)--------|-(7)--------|-(7)----*|
|-7--------|-(7)--------|-(7)--------|-(7)--------|-(7)----*|
|-5--------|-(5)--------|-(5)--------|-(5)--------|-(5)----*|
|-0--------|-(0)--------|-(0)--------|-(0)--------|-(0)----*|


Duration Legend
---------------
W - whole; H - half; Q - quarter; E - 8th; S - 16th; T - 32nd; X - 64th; a - acciaccatura
+ - note tied to previous; . - note dotted; .. - note double dotted
Uncapitalized letters represent notes that are staccato (1/2 duration)
Irregular groupings are notated above the duration line
Duration letters will always appear directly above the note/fret number it represents the
duration for.  Duration letters with no fret number below them represent rests.  Multi-
bar rests are notated in the form Wxn, where n is the number of bars to rest for.  Low
melody durations appear below the staff

Tablature Legend
----------------
 h   - hammer-on
 p   - pull-off
 b   - bend
 pb  - pre-bend
 r   - bend release (if no number after the r, then release immediately)
 /\  - slide into or out of (from/to "nowhere")
 s   - legato slide
 S   - shift slide
  - natural harmonic
[n]  - artificial harmonic
n(n) - tapped harmonic
 ~   - vibrato
 tr  - trill
 T   - tap
 TP  - trem. picking
 PM  - palm muting
\n/  - tremolo bar dip; n = amount to dip
 \n  - tremolo bar down
 n/  - tremolo bar up
/n\  - tremolo bar inverted dip
 =   - hold bend; also acts as connecting device for hammers/pulls
 <>  - volume swell (louder/softer)
 x   - on rhythm slash represents muted slash
 o   - on rhythm slash represents single note slash

Misc Legend
-----------
 |  - bar
||  - double bar
||o - repeat start
o|| - repeat end
*|  - double bar (ending)
 :  - bar (freetime)
 $  - Segno
 &  - Coda
Tempo markers -  = BPM(8/16=s8/s16), where s8 = swing 8ths, s16 = swing 16ths





Comments


Popular Stone Sour tabs & chords
Hesitate 2 Bass Tabs
Socio Bass Tabs
Take A Number 2 Bass Tabs
Bother 9 Tabs
Inhale W/ Lyrics Tabs
Say Youll Haunt Me 2 Tabs
Through Glass 3 Tabs
Tulmut Tabs
Tulmut 1 Tabs
Wicked Game Tabs


Song lyrics



↑ Back to top | Tablatures and chords are parodies/interpretations of the original songs. You may use it for private study, scholarship, research or language learning purposes only
© 2014 AZChords.com Contact us | Privacy policy | DMCA | Add/correct tabs | Request tabs | Top 50 tabs