» » »

666inhale666 Tabs (ver.3)

Artists:  A B C D E F G H I J K L M N O P Q R S T U V W X Y Z # 

666inhale666 Tabs (ver.3)

Stone Sour
Rating:
0/5 (0 votes)

Hard to play? Try these video lessons and learn fast.
                "(1)
Tuning: Drop D Down 1 1/2 Steps

Intro 1

Db:-----------
Ab:-----------
E: -----------
B: -0-7-6-2-3-
Gb:-----------
B: -----------

Intro 2

Db:-----------
Ab:-----------
E: -----------
B: -0-7-6-2-3-
Gb:-0-7-6-2-3-
B: -0-7-6-2-3-

Verse

Db:-----------------------
Ab:-----------------------
E: -7-----7-7-7-----------
B: -7-----7-7-7---8-8-8-7-
Gb:-5-----5-5-5---8-8-8-7-
B: -0-----0-0-0---8-8-8-7-

Pre-Chorus 1

Db:-----------------------------------------------------------------
Ab:-----------------------------------------------------------------
E: -----------------------------------------------------------------
B: -5-5-5-5-5-5-5-5-5-5-5-5-5-5-5-5-5-5-5-5-5-5-5-5-5-5-5-5-5-5-5-5-
Gb:-5-5-5-5-5-5-5-5-5-5-5-5-5-5-5-5-5-5-5-5-5-5-5-5-5-5-5-5-5-5-5-5-
B: -5-5-5-5-5-5-5-5-5-5-5-5-5-5-5-5-5-5-5-5-5-5-5-5-5-5-5-5-5-5-5-5-

Chorus

Db:-----------
Ab:-----------
E: -----------
B: -0-7-6-2-3-
Gb:-----------
B: -----------

Interlude

Db:---------------
Ab:---------------
E: -7----7-7-7----
B: -7----7-7-7----
Gb:-5----5-5-5----
B: -0----0-0-0----

Bridge

Db:----------------------------------------
Ab:----------------------------------------
E: -3-3-3-3--5-5-5-5-----3-3-5-5-5-5-5-5---
B: -3-3-3-3--5-5-5-5--5--3-3-5-5-5-5-5-5-5-
Gb:-1-1-1-1--3-3-3-3--5--1-1-3-3-3-3-3-3-5-
B: -------------------5------------------5-

Pre Chorus 2

Db:-------------------
Ab:-------------------
E: -------------------
B: -5-5-5-5-5-5-5-5-5-
Gb:-5-5-5-5-5-5-5-5-5-
B: -5-5-5-5-5-5-5-5-5-

Outro

Db:-----------
Ab:-----------
E: -----------
B: -0-7-6-2-3-
Gb:-0-7-6-2-3-
B: -0-7-6-2-3-

Ending Note

Db:---
Ab:---
E: -7-
B: -7-
Gb:-5-
B: -0-

Song Anatomy

Intro 1 - 6x
Intro 2 - 4x
Verse - 3x
Pre Chorus 1 - 1x
Chorus - 8x
Verse - 3x
Pre-Chorus - 1x
Chorus - 8x
Interlude - 1x
Bridge - 2x
Pre Chorus 2 - 16x
Outro - 4x
Ending Chord - 1x
"            
Hard to play? Try these video lessons and learn fast. | Correct




comments powered by Disqus
↑ Back to top | Tablatures and chords are parodies/interpretations of the original songs. You may use it for private study, scholarship, research or language learning purposes only