» » »

666inhale666 Bass tabs (ver.1)

Artists:  A B C D E F G H I J K L M N O P Q R S T U V W X Y Z # 

666inhale666 Bass tabs (ver.1)

Stone Sour
Rating:
0/5 (0 votes)

Hard to play? Try these video lessons and learn fast.
                Here's a new tab for ya
Must have a 5 string bass standard tuning (BEADG)

Intro (Tens not One Zero)
G-------------------------------------------------------------------
D-------------------------------------------------------------------
A-----------------------------------------------------------------
E-----------------------------------------------------------------
B--0--0--000---3--3--333--5--5--555--8--8--8-10-10

Heavier Part of Intro
G-------------------------
D------------------------
A------------------------
E-------------------------
B--0/-7-6--2--3-------

Verse
G----------------------------------------------
D---------------------------------------------
A-------------------------------------------
E--------------------------------------------
B-0-----000-----000----0-8---7---7---

Pre Chorus
G--------------------------------
D---------------------------------
A--------------------------------
E------------------------------
B--5555555555555555--

Chorus (Same as Intro part 1)

Bridge (After Drum Solo Thing) (Again Tens not one zero)
G-----------------------------------------------------------------------------------
D-----------------------------------------------------------------------------------
A--------------------------------------------------------------------------------
E-----------------------------------------------------------------------------------
B---8-8-8----10-10-10--5~~~~~~~--8--8--10--------5~~~~~~~~~~

End of Bridge (Same as Pre Chorus)

Outro (Same as heavier part of intro)
            
Hard to play? Try these video lessons and learn fast. | Correct




comments powered by Disqus
↑ Back to top | Tablatures and chords are parodies/interpretations of the original songs. You may use it for private study, scholarship, research or language learning purposes only