» » »

666inhale666 Tabs (ver.4)

Artists:  A B C D E F G H I J K L M N O P Q R S T U V W X Y Z # 

666inhale666 Tabs (ver.4)

Stone Sour
Rating:
0/5 (0 votes)

Hard to play? Try these video lessons and learn fast.
                "(2)
Band-Stone Sour
Song-Inhale
this is my favorite stone sour song i don't know the tuning
This is in order, I don’t know if it 100% right but I know the intro is 100% right.
/-slide down
#-11
pm — palm mute
~ - let ring or vibrato
sb - slight bend

--------------
--------------
--------------x6
---7-6/2~-3sb-
-5------------
--------------

-----------
-----------
---9-8/4-5-
-7-9-8/4-5-x4
-7-7-6/2-3-
-5---------
you don’t have to slid but anyway is good

--------------------------
--------------------------
--------------------------
-5~-5-5-5-3-3-3-2-2-2-2-2-x4
-5~-5-5-5-3-3-3-3-2-2-2-2-
-5~-5-5-5-----------------
I don’t if this is right I know the first part is right 

----------------
----------------
----------------
-5-5-5-5-5-5-5-5
-5-5-5-5-5-5-5-5
-5-5-5-5-5-5-5-5
pm--------------

--------------
--------------
--------------
---7-6/2~-3sb-x8
-5------------
--------------

--------------------------
--------------------------
--------------------------
-5~-5-5—-3-3-3-3-2-2-2-2-x4
-5~-5-5—-3-3-3-3-2-2-2-2
-5~-5-5------------------



----------------
----------------
----------------
----------------
-5-5-5-5-5-5-5-5
-5-5-5-5-5-5-5-5
-5-5-5-5-5-5-5-5
pm--------------

--------------
--------------
--------------x8
---7-6/2~-3sb-
-5------------
--------------

----------------------    -------------------------
----------------------    --------------#-#-#-#----
--------------#-#-#-#-    ------9-9-9-9-1-1-1-1----
-5~---9-9-9-9-1-1-1-1-x4or-5~---9-9-9-9-1-1-1-1----
-5~---9-9-9-9-1-1-1-1-    -5~---7-7-7-7-9-9-9-9----
-5~---7-7-7-7-9-9-9-9-    -5-----------------------
                           i personaly think this ones sounds the best!
-------
-------
-------
-5~----
-5~----
-5~----

--------------
--------------
--------------x16
---7-6/2~-3sb-
-5------------
--------------

-----------
-----------
---9-8/4-5-
-7-9-8/4-5-x4
-7-7-6/2-3-
-5---------

------
------
-----
-5~---
-5~---
-5~---
end on
Stone Sour Kicks Ass
"            
Hard to play? Try these video lessons and learn fast. | Correct




comments powered by Disqus
↑ Back to top | Tablatures and chords are parodies/interpretations of the original songs. You may use it for private study, scholarship, research or language learning purposes only