» » »

Idle Hands Bass tabs (ver.1)

Artists:  A B C D E F G H I J K L M N O P Q R S T U V W X Y Z # 

Idle Hands Bass tabs (ver.1)

Stone Sour
Rating:
0/5 (0 votes)

Tabs too difficult? Try these video lessons and learn fast.
                -------------------------------------------------------------------------------
			     Idle Hands – Stone Sour
-------------------------------------------------------------------------------


Tuning: Drop B

E |----------------------------------------------------------------|
B |------------------5-7-6-5----------------------------------5-4--|
F#|--5-5-0-5-0-5-6-----------6-5~---5-5-0-5-r-1---0-3-0-3-0-3------|  X2
B |----------------------------------------------------------------|

E |-----------|---------------|
B |-----------|---------------|
F#|-----------|-5\---5\---5\--|
B |--0--------|---------------|

E |-----------------------------|------------------------------|
B |-----------------------------|------------------------------|
F#|-----------------------------|------------------------------|  X2
B |--0-000-1-0---0-0-00-1-0-3~--|--0-000-1-0---0-0-00-3-1-3-1--|

E |----------------------------------|----------------------------------|
B |----------------------------------|----------------------------------|
F#|----------------------------------|----------------------------------|
B |--0-0-0-0-1-0-0-1-0-1-0-0-1-0-3~--|--0-0-0-0-1-0-0-1-0-1-0-0-1-0-1~--|

E |----------------------------------|-----------------------------------|
B |----------------------------------|-----------------------------------|
F#|----------------------------------|-----------------------------------|
B |--0-0-0-0-1-0-0-1-0-1-0-0-1-0-3~--|--0-0-0-0-1-0-0-1-0-1-0-0-3-1-3-1--|

E |-----------|-----------|-----------|-----------|      |---------------|
B |-----------|-----------|-----------|-----------|      |---------------|
F#|-----------|-----------|-----------|-----------|  X2  |---------------|
B |--0--------|--3--------|--6--------|--5--------|      |--6---000-1-0--|

E |--------------------|      |----------------|
B |--------------------|      |----------------|
F#|--------------------|  X3  |----------------|
B |--0000-1-0-000-000--|      |--0000-1-0-r-6--|

E |--------------------|      |--------------------|-----------|---------------|
B |--------------------|      |--------------------|-----------|---------------|
F#|--------------------|  X3  |--------------------|-----------|-5\---5\---5\--|
B |--0000-1-0-000-000--|      |--0000-1-0-r-6---0--|--0--------|---------------|

E |-----------------------------|------------------------------|
B |-----------------------------|------------------------------|
F#|-----------------------------|------------------------------|  X2
B |--0-000-1-0---0-0-00-1-0-3~--|--0-000-1-0---0-0-00-3-1-3-1--|

E |----------------------------------|----------------------------------|
B |----------------------------------|----------------------------------|
F#|----------------------------------|----------------------------------|
B |--0-0-0-0-1-0-0-1-0-1-0-0-1-0-3~--|--0-0-0-0-1-0-0-1-0-1-0-0-1-0-1~--|

E |----------------------------------|-----------------------------------|
B |----------------------------------|-----------------------------------|
F#|----------------------------------|-----------------------------------|
B |--0-0-0-0-1-0-0-1-0-1-0-0-1-0-3~--|--0-0-0-0-1-0-0-1-0-1-0-0-3-1-3-1--|

E |-----------|-----------|-----------|-----------|      |---------------|
B |-----------|-----------|-----------|-----------|      |---------------|
F#|-----------|-----------|-----------|-----------|  X2  |---------------|
B |--0--------|--3--------|--6--------|--5--------|      |--6---000-1-0--|

E |-----------------------------------|-----------------------------------|
B |-----------------------------------|-----------------------------------|
F#|--5-5-5-0-5-5-5-0-1-1-1-0-1-0-1-1--|-----------------------------------|  X2
B |-----------------------------------|--3-3-3-0-3-3-3-0-1-1-0-1---0-1-0--|

E |-------------------------------------|-------------------------------------|
B |-------------------------------------|-------------------------------------|
F#|-------------------------------------|-------------------------------------|
B |--3-2-0-2-0-2-3-2---3-2-0-2-0-2-3-6--|--3-2-0-2-0-2-3-2---3-2-0-2-0-3-6-0--|

E |----------------------------------------------------------------|
B |------------------5-7-6-5----------------------------------5-4--|
F#|--5-5-0-5-0-5-6-----------6-5~---5-5-0-5-r-1---0-3-0-3-0-3------|  X2
B |----------------------------------------------------------------|

E |-----------|---------------|
B |-----------|---------------|
F#|-----------|-5\---5\---5\--|
B |--0--------|---------------|

E |-----------------------------|------------------------------|
B |-----------------------------|------------------------------|
F#|-----------------------------|------------------------------|  X2
B |--0-000-1-0---0-0-00-1-0-3~--|--0-000-1-0---0-0-00-3-1-3-1--|

E |----------------------------------|----------------------------------|
B |----------------------------------|----------------------------------|
F#|----------------------------------|----------------------------------|
B |--0-0-0-0-1-0-0-1-0-1-0-0-1-0-3~--|--0-0-0-0-1-0-0-1-0-1-0-0-1-0-1~--|

E |----------------------------------|-----------------------------------|
B |----------------------------------|-----------------------------------|
F#|----------------------------------|-----------------------------------|
B |--0-0-0-0-1-0-0-1-0-1-0-0-1-0-3~--|--0-0-0-0-1-0-0-1-0-1-0-0-3-1-3-1--|

E |-----------|-----------|-----------|-----------|      |---------------|
B |-----------|-----------|-----------|-----------|      |---------------|
F#|-----------|-----------|-----------|-----------|  X2  |---------------|
B |--0--------|--3--------|--6--------|--5--------|      |--6---000-1-0--|

E |-----------------------------------|-----------------------------------|
B |-----------------------------------|-----------------------------------|
F#|--5-5-5-0-5-5-5-0-1-1-1-0-1-0-1-1--|-----------------------------------|  X2
B |-----------------------------------|--3-3-3-0-3-3-3-0-1-1-0-1---0-1-0--|

E |-------------------------------------|-------------------------------------|
B |-------------------------------------|-------------------------------------|
F#|-------------------------------------|-------------------------------------|
B |--3-2-0-2-0-2-3-2---3-2-0-2-0-2-3-6--|--3-2-0-2-0-2-3-2---3-2-0-2-0-3-6-0--|

E |----------------------------------------------------------------|
B |------------------5-7-6-5----------------------------------5-4--|
F#|--5-5-0-5-0-5-6-----------6-5~---5-5-0-5-r-1---0-3-0-3-0-3------|  X2
B |----------------------------------------------------------------|


| /  slide up
| \  slide down
| h  hammer-on
| p  pull-off
| ~  vibrato
| +  harmonic
| x  Mute note
| r  rest
===============================================================================
            
Tabs too difficult? Try these video lessons and learn fast.


comments powered by Disqus
↑ Back to top | Tablatures and chords are parodies/interpretations of the original songs. You may use it for private study, scholarship, research or language learning purposes only