» » »

Idle Hands Tabs (ver.1)

Artists:  A B C D E F G H I J K L M N O P Q R S T U V W X Y Z # 

Idle Hands Tabs (ver.1)

Stone Sour
Rating:
0/5 (0 votes)

Hard to play? Try these video lessons and learn fast.
                Tuning: B F# B E G# C#

PM - Palm mute
\ - Slide down
~ - vibrato

Intro
|------------------------------------------------------------|       |-----|
|------------------------------------------------------------|       |-----|
|-5-7-7-7-5-7-8-------------------7-7-5-7-3------------------| x2    |-----| x1
|-5-7-7-7-5-7-8--5-7-7-6----------7-7-5-7-3--------------5-4-|       |--0--|
|-3-5-5-5-3-5-6-----------6-5-5~--5-5-3-5-1--0-5-4-5-4-0-----|       |--0--|
|------------------------------------------------------------|       |--0--|
PM                                           - - - - - - 


Verse
|--------------------------------------------------------------|
|--------------------------------------------------------------|
|--------------------------------------------------------------| x2
|----0-0-0-----------------------0-0-0-------------------------|
|----0-0-0-----------------------0-0-0-------------------------|
|-0--0-0-0-1-0--0-0--0-1-0-3--0--0-0-0-1-0--0-0--0-3-3-3-1-1-1-|
PM   - - -                       - - -             - - - - - -


|--------------------------------------------------------|
|--------------------------------------------------------|
|--------------------------------------------------------| x2
|-0-0-0-0---------------------0-0-0-0------------0-3-1-0-|
|-0-0-0-0---------------------0-0-0-0------------0-3-1-0-|
|-0-0-0-0--1-0--0-0--0-1-0-3--0-0-0-0--1-0--0-0--0-3-1-0-|
PM- - - -                     - - - -


Pre chorus
|---------------|     |-------------|
|---------------|     |-------------|
|---------------| x2  |-------------| x1
|-0---3---6---1-|     |-6-0-0-0-----|
|-0---3---6---1-|     |-6-0-0-0-----|
|-0-------------|     |-6-0-0-0-1-0-|  
PM                        - - -


Bridge
|------------|      |--------------------------|     |-----|     
|------------|      |--------------------------|     |-----|     
|------------| x1   |--------------------------| x3  |-----| x1   
|-0-0-0------|      |-0-0-0--0-0-0--0-0-0------|     |--6--|    
|-0-0-0------|      |-0-0-0--0-0-0--0-0-0------|     |--6--|     
|-0-0-0--1-0-|      |-0-0-0--0-0-0--0-0-0--1-0-|     |--6--|    
PM- -                 - -    - -    - -


|------------|      |--------------------------|     |--------|
|------------|      |--------------------------|     |--------|
|------------| x1   |--------------------------| x3  |--------| x1 (let ring last note)
|-0-0-0------|      |-0-0-0--0-0-0--0-0-0------|     |-6-0--0-|
|-0-0-0------|      |-0-0-0--0-0-0--0-0-0------|     |-6-0--0-|
|-0-0-0--1-0-|      |-0-0-0--0-0-0--0-0-0--1-0-|     |-6-0--0-|
PM- -                 - -    - -    - -


Verse
|--------------------------------------------------------------|
|--------------------------------------------------------------|
|--------------------------------------------------------------| x2
|----0-0-0-----------------------0-0-0-------------------------|
|----0-0-0-----------------------0-0-0-------------------------|
|-0--0-0-0-1-0--0-0--0-1-0-3--0--0-0-0-1-0--0-0--0-3-3-3-1-1-1-|
PM   - - -                       - - -             - - - - - -


|--------------------------------------------------------|
|--------------------------------------------------------|
|--------------------------------------------------------| x2
|-0-0-0-0---------------------0-0-0-0------------0-3-1-0-|
|-0-0-0-0---------------------0-0-0-0------------0-3-1-0-|
|-0-0-0-0--1-0--0-0--0-1-0-3--0-0-0-0--1-0--0-0--0-3-1-0-|
PM- - - -                     - - - -


Pre chorus
|---------------|     |-------------|
|---------------|     |-------------|
|---------------| x2  |-------------| x1
|-0---3---6---1-|     |-6-0-0-0-----|
|-0---3---6---1-|     |-6-0-0-0-----|
|-0-------------|     |-6-0-0-0-1-0-|  
PM                        - - -


Chorus
|-------------------------------------------------|
|-------------------------------------------------|
|-7-7-7-7-7-7-------------------------------------| x2
|-7-7-7-7-7-7-3-3-3-3-3-3-1-1-1-1-1-1-0-0-0-0-0-0-|
|-5-5-5-5-5-5-3-3-3-3-3-3-1-1-1-1-1-1-0-0-0-0-0-0-|
|-------------3-3-3-3-3-3-1-1-1-1-1-1-0-0-0-0-0-0-|


|---------------------------------|       |-----|
|---------------------------------|       |-----|
|---------------------------------| x2    |-----| x1
|-1-0-2-0-1-0-3-0-1-0-2-0-1-0-3\2-|       |--0--|
|-1-0-2-0-1-0-3-0-1-0-2-0-1-0-3\2-|       |--0--|
|-1-0-2-0-1-0-3-0-1-0-2-0-1-0-3\2-|       |--0--|
PM- - - - - - - - - - - - - -


|------------------------------------------------------------|     |-----|
|------------------------------------------------------------|     |-----|
|-5-7-7-7-5-7-8-------------------7-7-5-7-3------------------| x2  |-----| x1 (let ring)
|-5-7-7-7-5-7-8--5-7-7-6----------7-7-5-7-3--------------5-4-|     |--0--|
|-3-5-5-5-3-5-6-----------6-5-5~--5-5-3-5-1--0-5-4-5-4-0-----|     |--0--|
|------------------------------------------------------------|     |--0--|


Verse
|--------------------------------------------------------------|
|--------------------------------------------------------------|
|--------------------------------------------------------------| x2
|----0-0-0-----------------------0-0-0-------------------------|
|----0-0-0-----------------------0-0-0-------------------------|
|-0--0-0-0-1-0--0-0--0-1-0-3--0--0-0-0-1-0--0-0--0-3-3-3-1-1-1-|
PM   - - -                       - - -             - - - - - -


|--------------------------------------------------------|
|--------------------------------------------------------|
|--------------------------------------------------------| x2
|-0-0-0-0---------------------0-0-0-0------------0-3-1-0-|
|-0-0-0-0---------------------0-0-0-0------------0-3-1-0-|
|-0-0-0-0--1-0--0-0--0-1-0-3--0-0-0-0--1-0--0-0--0-3-1-0-|
PM- - - -                     - - - -


Pre chorus
|---------------|     |-------------|
|---------------|     |-------------|
|---------------| x2  |-------------| x1
|-0---3---6---1-|     |-6-0-0-0-----|
|-0---3---6---1-|     |-6-0-0-0-----|
|-0-------------|     |-6-0-0-0-1-0-|  
PM                        - - -



Chorus
|-------------------------------------------------|
|-------------------------------------------------|
|-7-7-7-7-7-7-------------------------------------| x2
|-7-7-7-7-7-7-3-3-3-3-3-3-1-1-1-1-1-1-0-0-0-0-0-0-|
|-5-5-5-5-5-5-3-3-3-3-3-3-1-1-1-1-1-1-0-0-0-0-0-0-|
|-------------3-3-3-3-3-3-1-1-1-1-1-1-0-0-0-0-0-0-|


|---------------------------------|       |-----|
|---------------------------------|       |-----|
|---------------------------------| x2    |-----| x1
|-1-0-2-0-1-0-3-0-1-0-2-0-1-0-3\2-|       |--0--|
|-1-0-2-0-1-0-3-0-1-0-2-0-1-0-3\2-|       |--0--|
|-1-0-2-0-1-0-3-0-1-0-2-0-1-0-3\2-|       |--0--|
PM- - - - - - - - - - - - - -


Outro
|------------------------------------------------------------|    
|------------------------------------------------------------|     
|-5-7-7-7-5-7-8-------------------7-7-5-7-3------------------| x2 
|-5-7-7-7-5-7-8--5-7-7-6----------7-7-5-7-3--------------5-4-|   
|-3-5-5-5-3-5-6-----------6-5-5~--5-5-3-5-1--0-5-4-5-4-0-----|   
|------------------------------------------------------------|
            
Hard to play? Try these video lessons and learn fast. | Correct




comments powered by Disqus
↑ Back to top | Tablatures and chords are parodies/interpretations of the original songs. You may use it for private study, scholarship, research or language learning purposes only