» » »

Idle Hands Tabs (ver.2)

Artists:  A B C D E F G H I J K L M N O P Q R S T U V W X Y Z # 

Idle Hands Tabs (ver.2)

Stone Sour
Rating:
0/5 (0 votes)

Hard to play? Try these video lessons and learn fast.
                Idle Hands
Tuning B F# B E G# C#

~ - Vibrato
PM - Palm mute

Intro
|------------------------------------------------------------|     |-----|
|------------------------------------------------------------|     |-----|
|-7-7-7---7---8-------------------7-7---7-3------------------|     |-----| x1
|-7-7-7---7---8--5-7-7-6----------7-7---7-3--------------5-4-| x2  |--0--|
|-5-5-5-0-5-0-6-----------6-5-5~--5-5-0-5-1--0-3-0-3-0-3-----|     |--0--|
|------------------------------------------------------------|     |--0--|
PM                                           - - - - - -


Verse
|--------------------------------------------------------------|
|--------------------------------------------------------------|
|--------------------------------------------------------------| x2
|----0-0-0-----------------------0-0-0-------------------------|
|----0-0-0-----------------------0-0-0-------------------------|
|-0--0-0-0-1-0--0-0--0-1-0-3--0--0-0-0-1-0--0-0--0-3-3-3-1-1-1-|
PM   - - -                       - - -             - - - - - -


|------------------------------------------------------|
|------------------------------------------------------|
|------------------------------------------------------| x2
|-0-0-0-0--------------------0-0-0-0-----------0-3-1-0-|
|-0-0-0-0--------------------0-0-0-0-----------0-3-1-0-|
|-0-0-0-0-1-0--0-0--0-1-0-3--0-0-0-0-1-0--0-0--0-3-1-0-|
PM- - - -                    - - - -            


Pre chorus
|---------------|     |-------------|
|---------------|     |-------------|
|---------------| x2  |-------------| x1
|-0---3---6---1-|     |-6-0-0-0-----|
|-0---3---6---1-|     |-6-0-0-0-----|
|-0-------------|     |-6-0-0-0-1-0-|  
PM                        - - -


Bridge
|-----------|      |---------------------------|     |-----|     
|-----------|      |---------------------------|     |-----|     
|-----------| x1   |---------------------------| x3  |-----| x1   
|-0-0-0-----|      |-0-0-0--0-0-0--0-0-0-0-----|     |--6--|    
|-0-0-0-----|      |-0-0-0--0-0-0--0-0-0-0-----|     |--6--|     
|-0-0-0-1-0-|      |-0-0-0--0-0-0--0-0-0-0-1-0-|     |--6--|    
PM- -                - -    - -    - - - -


|-----------|      |---------------------------|     |--------|
|-----------|      |---------------------------|     |--------|
|-----------| x1   |---------------------------| x3  |--------| x1
|-0-0-0-----|      |-0-0-0--0-0-0--0-0-0-0-----|     |-6-0--0-|
|-0-0-0-----|      |-0-0-0--0-0-0--0-0-0-0-----|     |-6-0--0-|
|-0-0-0-1-0-|      |-0-0-0--0-0-0--0-0-0-0-1-0-|     |-6-0--0-|
PM- -                - -    - -    - - - -


Verse
|--------------------------------------------------------------|
|--------------------------------------------------------------|
|--------------------------------------------------------------|
|----0-0-0-----------------------0-0-0-------------------------| x2
|----0-0-0-----------------------0-0-0-------------------------|
|-0--0-0-0-1-0--0-0--0-1-0-3--0--0-0-0-1-0--0-0--0-3-3-3-1-1-1-|
PM   - - -                       - - -             - - - - - -


|------------------------------------------------------|
|------------------------------------------------------|
|------------------------------------------------------| x2
|-0-0-0-0--------------------0-0-0-0-----------0-3-1-0-|
|-0-0-0-0--------------------0-0-0-0-----------0-3-1-0-|
|-0-0-0-0-1-0--0-0--0-1-0-3--0-0-0-0-1-0--0-0--0-3-1-0-|
PM- - - -                    - - - -           


Pre chorus
|---------------|     |-------------|
|---------------|     |-------------|
|---------------| x2  |-------------| x1
|-0---3---6---1-|     |-6-0-0-0-----|
|-0---3---6---1-|     |-6-0-0-0-----|
|-0-------------|     |-6-0-0-0-1-0-|  
PM                        - - -


Chorus
|--------------------------------------------------------------|
|--------------------------------------------------------------|
|-7-7-7---7---7--3-3-3---3---3---------------------------------|
|-7-7-7---7---7--3-3-3---3---3--3-3-3---3---3--1-1-1---1---1-0-| x2
|-5-5-5-0-5-0-5--1-1-1-0-1-0-1--3-3-3---3---3--1-1-1---1---1-0-|
|-------------------------------3-3-3-0-3-0-3--1-1-1-0-1-0-1-0-|


|----------------------------------|
|----------------------------------|
|----------------------------------|
|-3-2-0-2-0-2-3-2--3-2-0-2-0-2-3-2-| x2
|-3-2-0-2-0-2-3-2--3-2-0-2-0-2-3-2-|
|-3-2-0-2-0-2-3-2--3-2-0-2-0-2-3-2-|
PM- - - - - - - -  - - - - - -


Bridge
|------------------------------------------------------------|     |-----|
|------------------------------------------------------------|     |-----|
|-7-7-7---7---8-------------------7-7---7-3------------------|     |-----| x1
|-7-7-7---7---8--5-7-7-6----------7-7---7-3--------------5-4-| x2  |--0--|
|-5-5-5-0-5-0-6-----------6-5-5~--5-5-0-5-1--0-3-0-3-0-3-----|     |--0--|
|------------------------------------------------------------|     |--0--|
PM                                          


Verse
|--------------------------------------------------------------|
|--------------------------------------------------------------|
|--------------------------------------------------------------|
|----0-0-0-----------------------0-0-0-------------------------| x2
|----0-0-0-----------------------0-0-0-------------------------|
|-0--0-0-0-1-0--0-0--0-1-0-3--0--0-0-0-1-0--0-0--0-3-3-3-1-1-1-|
PM   - - -                       - - -             - - - - - -


|-------------------------------------------------------|
|-------------------------------------------------------|
|-------------------------------------------------------| x2
|-0-0-0-0---------------------0-0-0-0-----------0-3-1-0-|
|-0-0-0-0---------------------0-0-0-0-----------0-3-1-0-|
|-0-0-0-0--1-0--0-0--0-1-0-3--0-0-0-0-1-0--0-0--0-3-1-0-|
PM- - - -                     - - - -            


Pre chorus
|---------------|     |-------------|
|---------------|     |-------------|
|---------------| x2  |-------------| x1
|-0---3---6---1-|     |-6-0-0-0-----|
|-0---3---6---1-|     |-6-0-0-0-----|
|-0-------------|     |-6-0-0-0-1-0-|  
PM                        - - -


Chorus
|--------------------------------------------------------------|
|--------------------------------------------------------------|
|-7-7-7---7---7--3-3-3---3---3---------------------------------|
|-7-7-7---7---7--3-3-3---3---3--3-3-3---3---3--1-1-1---1---1-0-| x2
|-5-5-5-0-5-0-5--1-1-1-0-1-0-1--3-3-3---3---3--1-1-1---1---1-0-|
|-------------------------------3-3-3-0-3-0-3--1-1-1-0-1-0-1-0-|


|----------------------------------|      |-----|
|----------------------------------|      |-----|
|----------------------------------|      |-----| x1
|-3-2-0-2-0-2-3-2--3-2-0-2-0-2-----| x2   |--0--|
|-3-2-0-2-0-2-3-2--3-2-0-2-0-2-----|      |--0--|
|-3-2-0-2-0-2-3-2--3-2-0-2-0-2-3-2-|      |--0--|
PM- - - - - - - -  - - - - - -


Outro
|-----------------------------------------------------------|
|-----------------------------------------------------------|
|-7-7-7---7---8------------------7-7---7-3------------------|
|-7-7-7---7---8--5-7-7-6---------7-7---7-3--------------5-4-| x2
|-5-5-5-0-5-0-6----------6-5-5~--5-5-0-5-1--0-3-0-3-0-3-----|
|-----------------------------------------------------------|
            
Hard to play? Try these video lessons and learn fast. | Correct




comments powered by Disqus
↑ Back to top | Tablatures and chords are parodies/interpretations of the original songs. You may use it for private study, scholarship, research or language learning purposes only