>
 >
Come What Ever May

Come What Ever May Guitar Tabs

Stone  Sour - Come What Ever May chords, tabs, tablatures, lyrics

Guitar lessons | Add/correct | Request | Top 50 tabs Artists:  A B C D E F G H I J K L M N O P Q R S T U V W X Y Z 0-9

Come What Ever May Guitar Tabs – Stone Sour

CD, Sheet music, Poster

Do you like Come What Ever May? Share with your friends now
Tabs
-------------------------------------------------------------------------------
                             "Come What (ever) May" solos - Stone Sour
-------------------------------------------------------------------------------


Tuning: B F# B E G# C# (low to high)

This is the tab for the two crazy solos in this song.
Both solos are played by Jim Root.



Key:

h = hammer on
p = pull off
T = Tap
/ \ = slide on
* = harmonic
x = muted string
! = tremelo pick
w = wammy bar
b = bend
.25 = quarter bend
.5 = half step bend
.75 = three fourths bend
1 = whole step bend.
1.5 = one and a half step bend.
() = bent note is returned to normal note, or note is barley heard.



+++++++++++++++++++++++++++++++++++++++++++++++++++++++++++++++++++++++++++++++
Guitar solo 1:

Guitar 1:
                 .25              .5            1            1
C#|---------------------------------------------------------------------------|
G#|---------------------------------------------------------------------------|
E |-7!-----------7b!-------------7b!-----------7b!----------7b!-------(7!)----|
B |---------------------------------------------------------------------------|
F#|---------------------------------------------------------------------------|
B |---------------------------------------------------------------------------|


                                     ******************************************
C#|---------------------------------------------------------------------------------------------------|
G#|---------------------------------------------------------------------------------------------------|
E |-5--7--5\4--5--4/5--7--5\4--5--0--1.9!//2!//2.3!//3!//4!//5!--3!//4!//5!//7!--0h2/-----------------|
B |---------------------------------------------------------------------------------------------------|
F#|---------------------------------------------------------------------------------------------------|
B |------------------------------------------------------------------------------------14p0-14p0-17\--|

End of Guitar solo 1.
+++++++++++++++++++++++++++++++++++++++++++++++++++++++++++++++++++++++++++++++
Guitar solo 2

Guitar 1:
           T           T           T           T           T           T
C#|---------------------------------------------------------------------------|
G#|---------------------------------------------------------------------------|
E |---------------------------------------------------------------------------|
B |-5h/10--17p14p10h14-17p14p10h14-17p14p10h15-19p15p12p15-19p15p12h15-23p15--|
F#|---------------------------------------------------------------------------|
B |---------------------------------------------------------------------------|


C#|-12h15p12----13h17p13----12h15p12----13h17p13----12h15p12----13h17-12h/13--15h/17p\15p13p12h13p12----|
G#|----------14----------15----------14----------13----------14--------------------------------------15-|
E |-----------------------------------------------------------------------------------------------------|
B |-----------------------------------------------------------------------------------------------------|
F#|-----------------------------------------------------------------------------------------------------|
B |-----------------------------------------------------------------------------------------------------|

                                                                               1        1.5
C#|-12-15h/17p\15p13p12h13p12----12-15h/17p\15p13p12h13p12-----12----------------------------------|
G#|---------------------------15----------------------------------15p13p12---15b----15--15b~~~~~~~-|
E |------------------------------------------------------------------------------------------------|
B |------------------------------------------------------------------------------------------------|
F#|------------------------------------------------------------------------------------------------|
B |------------------------------------------------------------------------------------------------|


The .5 on top is for the 19 on the G# string. The 1 is for the 19 on the E string.
            .5                       .5           .5          .5
             1                        1            1           1
C#|------------------------------------------------------------------------|
G#|-x--19--19b--(19)--19-----19-19--19b--(19)----19b--(19)\--12b--(12)~~~~-|
E |-x--19--19b--(19)--19-----19-19--19b--(19)----19b--(19)\--12b--(12)~~~~-|
B |------------------------------------------------------------------------|
F#|------------------------------------------------------------------------|
B |------------------------------------------------------------------------|

                T     T           T     T           T     T           T     T           T     T   
C#|-------15-17-22p17-22p17p15p12-22p17-22p17p15p12-22p17-22p17p15p12-20p17-20p17p15p12-20p17-20p17p15p12-|
G#|-15/17-------------------------------------------------------------------------------------------------|
E |-------------------------------------------------------------------------------------------------------|
B |-------------------------------------------------------------------------------------------------------|
F#|-------------------------------------------------------------------------------------------------------|
B |-------------------------------------------------------------------------------------------------------|

    T     T            T     T     T     T     T     T     T     T     T     T     T     T     T     T     T
C#|-20p17-20p17p15p12--18p15-18p15-17p15-17p14-17p14-17p14-17p13-16p13-16p13-16p12-15p12-15p11-14p11-14p10-13\-|
G#|------------------------------------------------------------------------------------------------------------|
E |------------------------------------------------------------------------------------------------------------|
B |------------------------------------------------------------------------------------------------------------|
F#|------------------------------------------------------------------------------------------------------------|
B |------------------------------------------------------------------------------------------------------------|

   For this part, push down the wammy bar after picking this note, and push it to slack.
C#|-------/-|
G#|------/--|
E |-----/---|
B |----/----|
F#|-0w/-----|
B |---------|

Comment it and rate it.
[travis]





Comments


Popular Stone Sour tabs & chords
Imperfect Chords
Wicked Game 2 Chords
30-30/150 2 Tabs
Bertha Tabs
Choose 1 Tabs
Get Inside 8 Tabs
Hell And Consequences 5 Tabs
Made Of Scars 1 Tabs
Through Glass 6 Tabs
Wicked Game 1 Tabs


Song lyrics



↑ Back to top | Tablatures and chords are parodies/interpretations of the original songs. You may use it for private study, scholarship, research or language learning purposes only
© 2014 AZChords.com Contact us | Privacy policy | DMCA | Add/correct tabs | Request tabs | Top 50 tabs