>
 >
Come What(Ever) May 1

Come What(Ever) May 1 Guitar Tabs

Stone  Sour - Come What(Ever) May 1 chords, tabs, tablatures, lyrics

Guitar lessons | Add/correct | Request | Top 50 tabs Artists:  A B C D E F G H I J K L M N O P Q R S T U V W X Y Z 0-9

Come What(Ever) May 1 Guitar Tabs – Stone Sour

CD, Sheet music, Poster

Do you like Come What(Ever) May 1? Share with your friends now
Bass TabsTabsTabs v2
#------------------------------------------------------------------------------##

                               COME WHAT(EVER) MAY
                            As recorded by Stone Sour
                    (From the 2006 Album COME WHAT(EVER) MAY)

Words and Music by Shawn Economaki, Josh Rand, Corey Taylor and James Root

Gtr I (B F# B E G# C#) - 'Guitar 1'
Gtr II (B F# B E G# C#) - 'Guitar 2'
Gtr III (B F# B E G# C#) - 'Guitar 3'
Gtr IV (B F# B E G# C#) - 'Guitar 4'

   Intro
    Moderately Fast Q=142
    F5D5      G5F5D5  F5D5      G5F5C5  F5D5      G5F5D5  F5D5      G5
   4/4
    Gtrs I, II
                                                              PM|
    E E E E E E E E   E E E E E E E E   E E E E E E E E   E E E E a Q  a Q
||------------------|-----------------|-----------------|-------------------||
||o-----------------|-----------------|-----------------|------------------o||
||------------------|-----------------|-----------------|-------------------||
||------------------|-----------------|-----------------|-------------------||
||o---------------5-|---------------3-|---------------5-|------------------o||
||--3p0---0---5-3---|-3p0---0---5-3---|-3p0---0---5-3---|-3p0-0-0-3h5--3h5--||


  F5D5        G5F5D5  F5D5        G5F5C5
          PM|                 PM|
  E E E E S S E E E   E E E E S S E E E
|-------------------|-------------------|
|-------------------|-------------------|
|-------------------|-------------------|
|-----------------7-|-----------------5-|
|-3p0---0-----5-3-5-|-3p0---0-----5-3-3-|
|-3p0---0-0-0-5-3---|-3p0---0-0-0-5-3---|


  F5D5        G5F5D5  F5D5      G5
          PM|             PM|
  E E E E S S E E E   E E E E a Q  a Q
|-------------------|--------------------||
|-------------------|--------------------||
|-------------------|--------------------||
|-----------------7-|--------------------||
|-3p0---0-----5-3-5-|-3p0-0-0-3h5--3h5---||
|-3p0---0-0-0-5-3---|-3p0-0-0-3h5--3h5---||


   Verse
    $
    D5      N.C.   F5D5    N.C.   D5      N.C.   F5D5      G5
    Gtrs I, II
                                                     PM|
    E E E E H      E E E E H      E E E E H      E E E E a Q  a Q
||---------------|--------------|--------------|---------------------||
||o--------------|--------------|--------------|--------------------o||
||---------------|--------------|--------------|---------------------||
||---------------|--------------|--------------|---------------------||
||o--------------|--------------|--------------|--------------------o||
||--0-0---0------|-3p0---0------|-0-0---0------|-3p0-0-0-3h5--3h5----||


  $$
  F5D5                    F5 D5
  Gtr I
  E E E   E E   E E   E    E E E   E E   E E   E
|-----------------------|------------------------|
|-----------------------|------------------------|
|-----------------------|------------------------|
|-3-0-----0-----0-----0-|--3-0-----0-----0-----0-|
|-3-0-----0-----0-----0-|--3-0-----0-----0-----0-|
|-3-0-----0-----0-----0-|--3-0-----0-----0-----0-|
|
| Gtr II
|     PM|   PM|   PM|          PM|   PM|   PM|
| E E S S E S S E S S E    E E S S E S S E S S E
|-----------------------|------------------------|
|-----------------------|------------------------|
|-5s7-----7-----7-----7-|-10s7-----7-----7-----7-|
|-x-------x-----x-----x-|--x-------x-----x-----x-|
|-3s5-5-5-5-5-5-5-5-5-5-|--8s5-5-5-5-5-5-5-5-5-5-|
|-----------------------|------------------------|


  F5D5                    F5 G5          F5 D5
  E E E   E E   E E   E    E  E  E     E  E E E   E
|-----------------------|----------------------------|
|-----------------------|----------------------------|
|-----------------------|----------------------------|
|-3-0-----0-----0-----0-|--3--5--------5--3-0-----0--|
|-3-0-----0-----0-----0-|--3--5--------5--3-0-----0--|
|-3-0-----0-----0-----0-|--3--5--------5--3-0-----0--|
|
|     PM|   PM|   PM|            PM|          PM|
| E E S S E S S E S S E    E  E  S  S  E  E E S S E
|-----------------------|----------------------------|
|-----------------------|----------------------------|
|-5s7-----7-----7-----7-|-10s12-------12-10s7-----7--|
|-x-------x-----x-----x-|--x-----------x--x-------x--|
|-3s5-5-5-5-5-5-5-5-5-5-|--8s10-10-10-10--8s5-5-5-5--|
|-----------------------|----------------------------|


  C5D5                    F5 D5
  E E E   E E   E E   E    E E E   E E   E E   E
|-----------------------|------------------------|
|-----------------------|------------------------|
|-----------------------|------------------------|
|-5-0-----0-----0-----0-|--3-0-----0-----0-----0-|
|-3-0-----0-----0-----0-|--3-0-----0-----0-----0-|
|-5-0-----0-----0-----0-|--3-0-----0-----0-----0-|
|
|     PM|   PM|   PM|          PM|   PM|   PM|
| E E S S E S S E S S E    E E S S E S S E S S E
|-----------------------|------------------------|
|-----------------------|------------------------|
|-5s7-----7-----7-----7-|-10s7-----7-----7-----7-|
|-x-------x-----x-----x-|--x-------x-----x-----x-|
|-3s5-5-5-5-5-5-5-5-5-5-|--8s5-5-5-5-5-5-5-5-5-5-|
|-----------------------|------------------------|


  F5D5                    F5 G5          F5 D5
                                              PM|
  E E E   E E   E E   E    E  E  E     E  E E E E
|-----------------------|---------------------------||
|-----------------------|---------------------------||
|-----------------------|---------------------------||
|-3-0-----0-----0-----0-|--3--5--------5--3-0-0-0---||
|-3-0-----0-----0-----0-|--3--5--------5--3-0-0-0---||
|-3-0-----0-----0-----0-|--3--5--------5--3-0-0-0---||
|
|     PM|   PM|   PM|            PM|          PM|
| E E S S E S S E S S E    E  E  S  S  E  E E E E
|-----------------------|---------------------------||
|-----------------------|---------------------------||
|-5s7-----7-----7-----7-|-10s12-------12-10s7-------||
|-x-------x-----x-----x-|--x-----------x--x---------||
|-3s5-5-5-5-5-5-5-5-5-5-|--8s10-10-10-10--8s5-0-0---||
|-----------------------|---------------------0-0---||


 Chorus
  G5   D5                           G5   D5
  Gtrs I, II
                              PM|                               PM|
  Q.   E +Q   a Q    +H.      E E   Q.   E +Q   a Q    +H.      E E
|------------------|--------------|------------------|----------------|
|------------------|--------------|------------------|----------------|
|------7-(7)-------|--------------|------7-(7)-------|----------------|
|-5----7-(7)--5h7--|-(7)----------|-5----7-(7)--5h7--|-(7)------------|
|-5----5-(5)----5--|-(5)------0-0-|-5----5-(5)----5--|-(5)------0-0---|
|-5-------------0--|-(0)------0-0-|-5-------------0--|-(0)------0-0---|


  G5   D5
                              PM|
  Q.   E +Q   a Q    +H.      E E
|------------------|--------------|
|------------------|--------------|
|------7-(7)-------|--------------|
|-5----7-(7)--5h7--|-(7)----------|
|-5----5-(5)----5--|-(5)------0-0-|
|-5-------------0--|-(0)------0-0-|


                                     To Coda
                                     To Coda
  G5   D5
                                PM--------|
  Q.   E +Q   a Q    +H     +E  S S S S S S
|------------------|-------------------------||
|------------------|-------------------------||
|------7-(7)-------|-------------------------||
|-5----7-(7)--5h7--|-(7)----(7)--------------||
|-5----5-(5)----5--|-(5)----(5)--------------||
|-5-------------0--|-(0)----(0)-0-0-0-0-0-0--||


 Guitar Solo
  F5   D5        G5F5D5  F5     D5          G5F5  C5
  Gtrs I, II
             PM|                       PM-|
  E    E E E S S E E E    E     E E E  S  S E  E   E
|----------------------|------------------------------|
|----------------------|------------------------------|
|----------------------|------------------------------|
|--------------------7-|---------------------------5--|
|-3p===0---0-----5-3-5-|--3p====0---0-------5--3---3--|
|-3p===0---0-0-0-5-3---|--3p====0---0--0--0-5--3------|
|
| Gtr III
| TP                      TP           TP      TP  TP
| W                      +H           +Q      +E  +E
|----------------------|------------------------------|
|----------------------|------------------------------|
|-7b8==================|=(7)b9========(7)-----(7)r(7)-|
|----------------------|------------------------------|
|----------------------|------------------------------|
|----------------------|------------------------------|


  F5    D5                        G5   F5    D5
                           PM|
  E     E     E     E      S S    E     E    E
|-------------------------------------------------|
|-------------------------------------------------|
|-------------------------------------------------|
|--------------------------------------------7----|
|-3p====0-----------0-------------5-----3----5----|
|-3p====0-----------0------0-0----5-----3---------|
|
|                          TP   TP   TP TP TP   TP
| |----6----| |----6----|  |----3----|  |---3---|
| S S S S S S S S S S S S  E    E    E  E  E    E
|-------------------------29S==27S==25S22S19S==15-|
|-------------------------------------------------|
|-5-7-5S4-5-4S5-7-5S4-5-0-------------------------|
|-------------------------------------------------|
|-------------------------------------------------|
|-------------------------------------------------|


                             D.S. al Coda
  F5    D5             G5
              PM--|
   E    E     E   E  a  Q        a  Q
|-----------------------------------------||
|-----------------------------------------||
|-----------------------------------------||
|-----------------------------------------||
|--3p===0-----0---0-----------------------||
|--3p===0-----0---0--3h=5--------3h=5-----||
|
|  TP TP   TP TP
|  |---3---|
|  E  E    E  S S E     S S  S S    Q
|-22S19S==15S10---------------------------||
|-----------------------------------------||
|---------------0h2/----------------------||
|-----------------------------------------||
|-----------------------------------------||
|----------------------14p0-14p0---17\----||


 Chorus
  &
  E5    D5    B5         E5  G5  E5  D5  E5    A5    G5       D5  E5  D5  E5
  Gtrs I, II
  E E E E E E  Q     +E  E E E E E E E   E E E E E E Q    +E  E E E E E E E
|-----------------|--------------------|----------------|-------------------|
|-----------------|--------------------|----------------|-------------------|
|-------7-7-7-11--|-(11)---------------|----------------|-------------------|
|-2-2-2-7-7-7--9--|--(9)-2-2S5-5S2-2-0-|-2-2-2S7-7-7S5--|-(5)-0-0-2-2-0-0-2-|
|-2-2-2-5-5-5--9--|--(9)-2-2S5-5S2-2-0-|-2-2-2S7-7-7S5--|-(5)-0-0-2-2-0-0-2-|
|-2-2-2--------9--|--(9)-2-2S5-5S2-2-0-|-2-2-2S7-7-7S5--|-(5)-0-0-2-2-0-0-2-|


        D5    B5         E5  G5  E5  D5
  Gtrs I, II
  E E E E E E  Q     +E  E E E E E E E
|-----------------|--------------------|
|-----------------|--------------------|
|-------7-7-7-11--|-(11)---------------|
|-2-2-2-7-7-7--9--|--(9)-2-2S5-5S2-2-0-|
|-2-2-2-5-5-5--9--|--(9)-2-2S5-5S2-2-0-|
|-2-2-2--------9--|--(9)-2-2S5-5S2-2-0-|
|
| Gtr IV
| W                   W
|-----------------|--------------------|
|-----------------|--------------------|
|-----------------|--------------------|
|-----------------|--------------------|
|-----------------|--------------------|
|-----------------|--------------------|


  E5    A5    G5       D5  E5  D5
  E E E E E E Q    +E  E E E E E E  E
|----------------|------------------------||
|----------------|------------------------||
|----------------|------------------------||
|-2-2-2S7-7-7S5--|-(5)-0-0-2-2-0-0--0-----||
|-2-2-2S7-7-7S5--|-(5)-0-0-2-2-0-0--0-----||
|-2-2-2S7-7-7S5--|-(5)-0-0-2-2-0-0--0-----||
|
|                                      T
| W                 H        E Q    S  S
|----------------|------------------------||
|----------------|------------------------||
|----------------|------------------------||
|----------------|-------------5s==10-17p=||
|----------------|------------------------||
|----------------|------------------------||


 Guitar Solo
  F5    D5                                 G5       F5       D5
  Gtrs I, II
                                 PM---|
   E     E     E        E        S    S     E        E        E
|------------------------------------------------------------------|
|------------------------------------------------------------------|
|------------------------------------------------------------------|
|-------------------------------------------------------------7----|
|--3p====0--------------0-------------------5--------3--------5----|
|--3p====0--------------0--------0----0-----5--------3-------------|
|
| Gtr IV
|           T           T           T             T           T
|              |------6-------|  |-------3--------|  |--3--|
|  S  S  S  S  S  S  S  S  S  S  S  S    S  S  S  S  S  S  S  S  S
|------------------------------------------------------------------|
|------------------------------------------------------------------|
|------------------------------------------------------------------|
|-14p10h14-17p14p10h14-17p14p10h15-19p==15p12h15-19p15p12h15-23p15-|
|------------------------------------------------------------------|
|------------------------------------------------------------------|


  F5       D5                                    G5       F5       D5
                                       PM---|
   E        E        E        E        S    S     E        E        E
|-----------------------------------------------------------------------------|
|-----------------------------------------------------------------------------|
|-----------------------------------------------------------------------------|
|-------------------------------------------------------------------7---------|
|--3p=======0-----------------0-------------------5--------3--------5---------|
|--3p=======0-----------------0--------0----0-----5--------3------------------|
|
|  |------6-------|  |------6-------|  |-------6--------|  |------6-------|
|  S  S  S  S  S  S  S  S  S  S  S  S  S  S    S  S  S  S  S  S  S  S  S  S
|-12h15p12----13h17p13----12h15p12----13h17p==13----12h15p12----13h17-12s13---|
|----------14----------15----------14------------15----------14---------------|
|-----------------------------------------------------------------------------|
|-----------------------------------------------------------------------------|
|-----------------------------------------------------------------------------|
|-----------------------------------------------------------------------------|


  F5       D5                              G5       F5      D5
                                 PM---|
   E        E     E     E        S    S     E         E      E
|--------------------------------------------------------------------|
|--------------------------------------------------------------------|
|--------------------------------------------------------------------|
|------------------------------------------------------------7-------|
|--3p=======0-----------0-------------------5---------3------5-------|
|--3p=======0-----------0--------0----0-----5---------3--------------|
|
|  |--3--|                       |-------6--------|   |-----6------|
|  S  S  S  S  S  S  S  S  S  a  S  S    S  S  S  S  +E   S  S  S  S
|-15s17s15p13p12h13p12----12-15s17s15p==13p12h13p12-(12)-12----------|
|----------------------15-----------------------------------15-13-12-|
|--------------------------------------------------------------------|
|--------------------------------------------------------------------|
|--------------------------------------------------------------------|
|--------------------------------------------------------------------|


  F5    D5            G5
           PM|
   E    E  E  E     a   Q    a Q
|-----------------------------------|
|-----------------------------------|
|-----------------------------------|
|-----------------------------------|
|--3p===0--0--0---------------------|
|--3p===0--0--0-----3h==5----3h5----|
|
|             ~~~~~~~~~~~~~~
|  Q       E  E        +Q      E  E
|-----------------------------------|
|-15b17---15-15b18====(15)r----x-19-|
|------------------------------x-19-|
|-----------------------------------|
|-----------------------------------|
|-----------------------------------|


  F5    D5     D5        G5    F5    D5
                    PM-|
   E      E  E  E   S  S  E     E      E
|-----------------------------------------|
|-----------------------------------------|
|-----------------------------------------|
|--------------------------------------7--|
|--3p=====0-----0---------5-----3------5--|
|--3p=====0-----0---0--0--5-----3---------|
|
|  E     +Q     E  +E     S  S  E     +E
|-----------------------------------------|
|-19b20-(19)---19-(19)---19-19-19b20-(19)-|
|-19b21r(19)---19-(19)---19-19-19b21r(19)-|
|-----------------------------------------|
|-----------------------------------------|
|-----------------------------------------|


  F5   D5                       G5F5    D5
                           PM-|
    E   E      E    E      S  S E  E     E
|---------------------------------------------|
|---------------------------------------------|
|---------------------------------------------|
|----------------------------------------7----|
|---3p==0-----------0-----------5--3-----5----|
|---3p==0-----------0------0--0-5--3----------|
|
|                          ~~~~
|  +E   E     +E    E     +Q       S  S  S  S
|---------------------------------------15-17-|
|-(19)-19b20-(19)\-12b13-(12)-----15S17-------|
|-(19)-19b21r(19)\-12b14r(12)-----------------|
|---------------------------------------------|
|---------------------------------------------|
|---------------------------------------------|


  F5          D5                                                   |
                                                         PM---||
   E           E           E           E                 S     S   |
|------------------------------------------------------------------|
|------------------------------------------------------------------|
|------------------------------------------------------------------|
|------------------------------------------------------------------|
|--3p==========0-----------------------0---------------------------|
|--3p==========0-----------------------0-----------------0-----0---|

 G5          F5          D5

  E           E           E
-------------------------------------------|
-------------------------------------------|
-------------------------------------------|
--------------------------7----------------|
--5-----------3-----------5----------------|
--5-----------3----------------------------|
|
|  T     T           T     T           T     T           T    |
|                                      |------6-------|       |
|  T  T  T  T  T  T  T  T  T  T  T  T  T  T  T  T  T  T  T  T |
|-22p17-22p17p15p12-22p17-22p17p15p12-22p17-22p17p15p12-20p17-|
|-------------------------------------------------------------|
|-------------------------------------------------------------|
|-------------------------------------------------------------|
|-------------------------------------------------------------|
|-------------------------------------------------------------|

 T           T     T           T     T
                               |------6-------|
 T  T  T  T  T  T  T  T  T  T  T  T  T  T  T  T
20p17p15p12-20p17-20p17p15p12-20p17-20p17p15p12-|
------------------------------------------------|
------------------------------------------------|
------------------------------------------------|
------------------------------------------------|
------------------------------------------------|


  F5          D5                                    G5
                           PM---------|
   E           E           E           E          a  Q                      a  Q
|---------------------------------------------------------------------------------------------||
|---------------------------------------------------------------------------------------------||
|---------------------------------------------------------------------------------------------||
|---------------------------------------------------------------------------------------------||
|--3p==========0-----------0-----------0------------------------------------------------------||
|--3p==========0-----------0-----------0----------3h=5----------------------3h=5--------------||
|
|  T     T     T     T     T     T     T     T       T     T     T     T       T     T     T
|  T  T  T  T  T  T  T  T  T  T  T  T  T  T  T  T    T  T  T  T  T  T  T  T    T  T  T  T  E
|-18p15-18p15-17p15-17p14-17p14-17p14-17p13-16p13---16p13-16p12-15p12-15p11---14p11-14p10-13\-||
|---------------------------------------------------------------------------------------------||
|---------------------------------------------------------------------------------------------||
|---------------------------------------------------------------------------------------------||
|---------------------------------------------------------------------------------------------||
|---------------------------------------------------------------------------------------------||


 Verse 3
        F5  D5  N.C.                      F5D5N.C.
  Gtr I
         E   E   E   E   E   E   E   E    E E  E   E   E   E   E   E
|---------------------------------------|-----------------------------|
|---------------------------------------|-----------------------------|
|---------------------------------------|-----------------------------|
|-------------------------------<3>-<3>-|---------------------<3>-<3>-|
|-----------------------<3>-<3>---------|-------------<3>-<3>---------|
|--------3p==0--<3>-<3>-----------------|-3p0-<3>-<3>-----------------|
|
| Gtr II
|        E   E   E   E   E   E   E   E    E E  E   E   E   E   E   E
|---------------------------------------|-----------------------------|
|---------------------------------------|-----------------------------|
|---------------------------------------|-----------------------------|
|---------------------------------------|-----------------------------|
|---------------------------------------|-----------------------------|
|--------3p==0--<4>-<4>-<4>-<4>-<4>-<4>-|-3p0-<4>-<4>-<4>-<4>-<4>-<4>-|
|
| Gtr IV
| \2.5___/0____________________________________________________________
| a     +E  +E   Q       H                W
|---------------------------------------|-----------------------------|
|---------------------------------------|-----------------------------|
|---------------------------------------|-----------------------------|
|---------------------------------------|-----------------------------|
|-0-----(0)-(0)-------------------------|-----------------------------|
|---------------------------------------|-----------------------------|


  F5D5N.C.                      F5D5      G5
                                    PM|
  E E  E   E   E   E   E   E    E E E E a Q  a Q
|-----------------------------|--------------------|
|-----------------------------|--------------------|
|-----------------------------|--------------------|
|---------------------<3>-<3>-|--------------------|
|-------------<3>-<3>---------|--------------------|
|-3p0-<3>-<3>-----------------|-3p0-0-0-3h5--3h5---|
|
|                                   PM|
| E E  E   E   E   E   E   E    E E E E a Q  a Q
|-----------------------------|--------------------|
|-----------------------------|--------------------|
|-----------------------------|--------------------|
|-----------------------------|--------------------|
|-----------------------------|--------------------|
|-3p0-<4>-<4>-<4>-<4>-<4>-<4>-|-3p0-0-0-3h5--3h5---|
|
| W                             W
|-----------------------------|--------------------|
|-----------------------------|--------------------|
|-----------------------------|--------------------|
|-----------------------------|--------------------|
|-----------------------------|--------------------|
|-----------------------------|--------------------|


  F5D5N.C.                      F5D5N.C.
  E E  E   E   E   E   E   E    E E  E   E   E   E   E   E
|-----------------------------|-----------------------------|
|-----------------------------|-----------------------------|
|-----------------------------|-----------------------------|
|---------------------<3>-<3>-|---------------------<3>-<3>-|
|-------------<3>-<3>---------|-------------<3>-<3>---------|
|-3p0-<3>-<3>-----------------|-3p0-<3>-<3>-----------------|
|
| E E  E   E   E   E   E   E    E E  E   E   E   E   E   E
|-----------------------------|-----------------------------|
|-----------------------------|-----------------------------|
|-----------------------------|-----------------------------|
|-----------------------------|-----------------------------|
|-----------------------------|-----------------------------|
|-3p0-<4>-<4>-<4>-<4>-<4>-<4>-|-3p0-<4>-<4>-<4>-<4>-<4>-<4>-|


                                D.S.S. al Dbl. Coda
  F5D5N.C.                      F5D5      G5
                                    PM|
  E E  E   E   E   E   E   E    E E E E a Q  a Q
|-----------------------------|---------------------||
|-----------------------------|---------------------||
|-----------------------------|---------------------||
|---------------------<3>-<3>-|---------------------||
|-------------<3>-<3>---------|---------------------||
|-3p0-<3>-<3>-----------------|-3p0-0-0-3h5--3h5----||
|
|                                   PM|
| E E  E   E   E   E   E   E    E E E E a Q  a Q
|-----------------------------|---------------------||
|-----------------------------|---------------------||
|-----------------------------|---------------------||
|-----------------------------|---------------------||
|-----------------------------|---------------------||
|-3p0-<4>-<4>-<4>-<4>-<4>-<4>-|-3p0-0-0-3h5--3h5----||


   Chorus
    &&
    E5    D5    B5         E5  G5  E5  D5
    Gtrs I, II
    E E E E E E  Q     +E  E E E E E E E
||------------------|--------------------|
||o-----------------|--------------------|
||--------7-7-7-11--|-(11)---------------|
||--2-2-2-7-7-7--9--|--(9)-2-2S5-5S2-2-0-|
||o-2-2-2-5-5-5--9--|--(9)-2-2S5-5S2-2-0-|
||--2-2-2--------9--|--(9)-2-2S5-5S2-2-0-|


  E5    A5    G5       D5  E5  D5  E5
  E E E E E E Q    +E  E E E E E E E
|----------------|---------------------||
|----------------|--------------------o||
|----------------|---------------------||
|-2-2-2S7-7-7S5--|-(5)-0-0-2-2-0-0-2---||
|-2-2-2S7-7-7S5--|-(5)-0-0-2-2-0-0-2--o||
|-2-2-2S7-7-7S5--|-(5)-0-0-2-2-0-0-2---||


  E5   D5    B5         E5  G5  E5  D5  E5     A5    G5       D5  E5  D5  E5
  Q.   E E E  Q     +E  E E E E E E E   Q  +E  E E E Q    +E  E E E E E E E
|----------------|--------------------|-----------------|-------------------|
|----------------|--------------------|-----------------|-------------------|
|------7-7-7-11--|-(11)---------------|-----------------|-------------------|
|-2----7-7-7--9--|--(9)-2-2S5-5S2-2-0-|-2--(2)S7-7-7S5--|-(5)-0-0-2-2-0-0-2-|
|-2----5-5-5--9--|--(9)-2-2S5-5S2-2-0-|-2--(2)S7-7-7S5--|-(5)-0-0-2-2-0-0-2-|
|-2-----------9--|--(9)-2-2S5-5S2-2-0-|-2--(2)S7-7-7S5--|-(5)-0-0-2-2-0-0-2-|


       D5    B5         E5  G5  E5  D5  E5   A5     G5       N.C.
  Gtr I
  Q.   E E E  Q     +E  E E E E E E E   Q.   E +Q   Q    +E  E E E E E   Q
|----------------|--------------------|----------------|---------------------||
|----------------|--------------------|----------------|---------------------||
|------7-7-7-11--|-(11)---------------|----------------|---------------------||
|-2----7-7-7--9--|--(9)-2-2S5-5S2-2-0-|-2----7-(7)--5--|-(5)-x-x-x-x-x-------||
|-2----5-5-5--9--|--(9)-2-2S5-5S2-2-0-|-2----7-(7)--5--|-(5)-x-x-x-x-x-/10\--||
|-2-----------9--|--(9)-2-2S5-5S2-2-0-|-2----7-(7)--5--|-(5)-x-x-x-x-x-/10\--||
|
| Gtr II
|                                                            PM------|
| Q.   E E E  Q     +E  E E E E E E E   Q.   E +Q   Q    +E  E E E E E   Q
|----------------|--------------------|----------------|---------------------||
|----------------|--------------------|----------------|---------------------||
|------7-7-7-11--|-(11)---------------|----------------|---------------------||
|-2----7-7-7--9--|--(9)-2-2S5-5S2-2-0-|-2----7-(7)--5--|-(5)-0-0-0-0-0-------||
|-2----5-5-5--9--|--(9)-2-2S5-5S2-2-0-|-2----7-(7)--5--|-(5)-0-0-0-0-0-------||
|-2-----------9--|--(9)-2-2S5-5S2-2-0-|-2----7-(7)--5--|-(5)-0-0-0-0-0--10\--||


   Outro
    F5D5              F5D5              F5D5
    Gtrs I, II
    E E E E E E E E   E E E E E E E E   E E E E E E E E
||------------------|-----------------|-----------------|
||o-----------------|-----------------|-----------------|
||------------------|-----------------|-----------------|
||------------------|-----------------|-----------------|
||o-3p0---0---0---0-|-3p0---0---0---0-|-3-0---0---0---0-|
||--3p0---0---0---0-|-3p0---0---0---0-|-3p0---0---0---0-|


  F5D5      G5          F5D5     N.C.
      PM|
  E E E E a Q  a Q      E S   S  Q  H
|--------------------||------------------*|
|-------------------o||------------------*|
|--------------------||------------------*|
|--------------------||------------------*|
|-3p0-0-0-----------o||------------------*|
|-3p0-0-0-3h5--3h5---||-3-0-h<3>---------*|


Duration Legend
---------------
W - whole; H - half; Q - quarter; E - 8th; S - 16th; T - 32nd; X - 64th; a - acciaccatura
+ - note tied to previous; . - note dotted; .. - note double dotted
Uncapitalized letters represent notes that are staccato (1/2 duration)
Irregular groupings are notated above the duration line
Duration letters will always appear directly above the note/fret number it represents the
duration for.  Duration letters with no fret number below them represent rests.  Multi-
bar rests are notated in the form Wxn, where n is the number of bars to rest for.  Low
melody durations appear below the staff

Tablature Legend
----------------
 h   - hammer-on
 p   - pull-off
 b   - bend
 pb  - pre-bend
 r   - bend release (if no number after the r, then release immediately)
 /\  - slide into or out of (from/to "nowhere")
 s   - legato slide
 S   - shift slide
  - natural harmonic
[n]  - artificial harmonic
n(n) - tapped harmonic
 ~   - vibrato
 tr  - trill
 T   - tap
 TP  - trem. picking
 PM  - palm muting
\n/  - tremolo bar dip; n = amount to dip
 \n  - tremolo bar down
 n/  - tremolo bar up
/n\  - tremolo bar inverted dip
 =   - hold bend; also acts as connecting device for hammers/pulls
 <>  - volume swell (louder/softer)
 x   - on rhythm slash represents muted slash
 o   - on rhythm slash represents single note slash

Misc Legend
-----------
 |  - bar
||  - double bar
||o - repeat start
o|| - repeat end
*|  - double bar (ending)
 :  - bar (freetime)
 $  - Segno
 &  - Coda
Tempo markers -  = BPM(8/16=s8/s16), where s8 = swing 8ths, s16 = swing 16ths


***************************************************************************************
***************************************************************************************





Comments


Popular Stone Sour tabs & chords
The Travelers Part 1 Chords
Through Glass Chords
0rchids Tabs
Bother (Solo) Tabs
Bother 2 Tabs
Last Of The Real Tabs
Lnhale Tabs
Made Of Scars Tabs
The Travelers Part 1 Tabs
Zzyzx Rd 3 Tabs


Song lyrics



↑ Back to top | Tablatures and chords are parodies/interpretations of the original songs. You may use it for private study, scholarship, research or language learning purposes only
© 2014 AZChords.com Contact us | Privacy policy | DMCA | Add/correct tabs | Request tabs | Top 50 tabs