>
 >
Love Spreads 1

Love Spreads 1 Bass Tabs

Stone Roses - Love Spreads 1 chords, tabs, tablatures, lyrics

Guitar lessons | Add/correct | Request | Top 50 tabs Artists:  A B C D E F G H I J K L M N O P Q R S T U V W X Y Z 0-9

Love Spreads 1 Bass Tabs – Stone Roses

CD, Sheet music, Poster

Do you like Love Spreads 1? Share with your friends now
Bass TabsBass Tabs v2Bass Tabs v3Bass Tabs v4TabsTabs v2
Drop E to D
E = Eighth note
S = Sixteenth note
Q = Quarter note


G|-------------|-----------------------|-------------------|
D|-------------|-----------------------|-------------------|
A|-------3-5-3-|---5-5-5-----------3---|----5-5-----3------|
D|-5-7-7-------|-0-------0-0-0-3-5---5-|--0-----5h7---7--3-|
   S S S E S S   Q E S S S S S S S S S    Q E S S E S S  E.

G|----------------------|---------------------|
D|--------------3---3---|-3-5-5-5-------------|
A|---5-5-5--5-5---5---5-|---------------------|
D|-0--------------------|---------5-5-5-5-5-5-|
   Q E S S  S S S S S S   S S S S E.E S S S Q.

G|--------------------|----------------------------|
D|--------------------|--------------------3---3---|
A|-----5-5--------3-5-|-------3-5-0-5--5-5---5---5-|
D|-0-0-----0--5-7-----|-5-7-0----------------------|
   E E E S E  S S S S   S S E S S S S  S S S S S S

G|-------------------------|---------------------------|
D|-3-5-5-5-------------3---|-3------2---0-0-0-0--------|
A|-------------------------|---------------------------|
D|---------5--5--5-5-5---5-|---5--5---5---------5-5-5-5|
   S S S S E. S  S S S S E.  S E  S S E.S S S S S s S S

G|--------------------------------|-----------------------------|
D|--------------------------------|-----------------------------|
A|---------3-5-5-5------------3---|-3-5-5-5-3--3-0--0-----------|
D|-0-0-0-0---------0--0-0-5-7---7-|-------------------5h7-3-3-3-|
   S S S S S S S S E  S S S S S S   S S S S S  E S  S S S S S E

G|------------------------|----------------------|
D|------------------------|----------------------|
A|-0-0--0-0--0-0-0-0-0--0-|-0--0-0---------------|
D|------------------------|--------5-7-7-7-7-7-7-|
   E E  E S  S S S S E  S   E  S S S S S S S S E.

G|---------------------|---------------------------|
D|-0--0-0-3-0----------|---------------------------|
A|--------------5-0--0-|-5--5-5-3--5------3--------|
D|---------------------|--------------5-7---7--3-3-|
   E  S S E E   S S  S   E  S S E  E  S S S S  S E

G|------------------------------|--------------------------|
D|------------------------------|--------------------------|
A|--------5--5-5------------3---|--------5--5-5-----3------|
D|-0--0-0--------0--0-0-5-7---7-|-0--0-0--------5-7---7--3-|
   E  S S E  S S E  S S S S S S   E  S S E  S S S S S S  E.

G|-----------------------------|-------------------------|
D|--0-0-0---0-0---0----0-------|-3-3---5---3-------------|
A|--------3-----3----3-----0-3-|-----5---5---5-5-3-3-5-3-|
D|-----------------------5-----|-------------------------|
    S S S S S S S S  S E S S E   S E S E S S S S S S S S

G|----------------------|--------------------------------|
D|-3-3---5---5--55--3---|--------------------------------|
A|-----5---5----------5-|-5-5-5-3-5-5-3-5--0-0-0-3-3-5-3-|
D|----------------------|--------------------------------|
   S E S E S S  EE  E E   S S S S S S S S  S S S S S S S

G|----------------------------|
D|-0-0-0---0-0---0----0-------|
A|-------3-----3----3-----0-3-|
D|----------------------5-----|
   S S S S S S S S  S E S S E





Comments


Popular Stone Roses tabs & chords
I Wanna Be Adored 2 Bass Tabs
Love Spreads 3 Bass Tabs
Made Of Stone 3 Bass Tabs
Shoot You Down Bass Tabs
Made Of Stone 1 Tabs
Standing Here Tabs
Tightrope 1 Tabs
Waterfall Tabs
Waterfall 3 Tabs
I Wanna Be Adored Ukulele


Song lyrics



↑ Back to top | Tablatures and chords are parodies/interpretations of the original songs. You may use it for private study, scholarship, research or language learning purposes only
© 2014 AZChords.com Contact us | Privacy policy | DMCA | Add/correct tabs | Request tabs | Top 50 tabs