>
 >
I Am The Resurrection

I Am The Resurrection Bass Tabs

Stone Roses - I Am The Resurrection chords, tabs, tablatures, lyrics

Guitar lessons | Add/correct | Request | Top 50 tabs Artists:  A B C D E F G H I J K L M N O P Q R S T U V W X Y Z 0-9

I Am The Resurrection Bass Tabs – Stone Roses

CD, Sheet music, Poster

Do you like I Am The Resurrection? Share with your friends now
Bass TabsBass Tabs v2Bass Tabs v3ChordsChords v2Chords v3Chords v4TabsTabs v2Ukulele
I Am The Resurrection - The Stone Roses
Bassist - Gary 'Mani' Mounfield



 0:15

  |   |   |   |    |   |   |   |    |   |   |   |    |   |   |   |   
G|----------------|----------------|----------------|----------------|
D|----9-----------|----9-----------|----9-----------|----9-----------|
A|--------7-6-----|--------7-6-----|--------7-6-----|--------7-6-----|
E|7-----------9-7-|------------9-7-|------------9-7-|------------9-7-|


  |   |   |   |    |   |   |   |    |   |   |   |    |   |   |   |   
G|----------------|------9---9-----|----------------|----------------|
D|----9-----------|7-----------7---|------7---7-----|----9-----------|
A|--------7-6-7---|----------------|7-----------7---|--------7-6-----|
E|----------------|--------------9-|----------------|7-----------9-7-|


  |   |   |   |    |   |   |   |    |   |   |   |    |   |   |   |   
G|----------------|----------------|----------------|----------------|
D|----9-----------|----9-----------|----9-----------|----9-----------|
A|--------7-6-----|--------7-6-----|--------7-6-----|--------7-6-7---|
E|------------9-7-|7-----------9-7-|------------9-7-|----------------|


  |   |   |   |    |   |   |   |    |   |   |   |    |   |   |    |   
G|------9---9-----|----------------|----------------|-----------------|
D|7-----------7---|------7---7-----|----9-----------|----9-8-9-11-9-8-|
A|----------------|7-----------7---|--------7-6-7---|-----------------|
E|--------------9-|----------------|7-------------7-|-----------------|



  0:45 - "Don't waste your words..."

  |    |   |    |    |    |   |    |    |   |   |   |    |   |   |   |   
G|------------------|------------------|----------------|----------------|
D|------------------|------------------|----------------|----------------|
A|11-----9h11-----9h|11-----9h11-9-7-6-|7---7-6-7-6-----|----------6-7-9h|
E|------------------|------------------|------------9-7-|7-----7-9-------|


  |    |   |    |    |    |   |    |    |   |   |   |    |   |   |   |   
G|------------------|------------------|----------------|----------------|
D|------------------|------------------|----------------|----------------|
A|11-----9h11-----9h|11-----9h11-9-7-6-|7---7-6-7-6---9-|9-9-9-9-9-9-9-9-|
E|------------------|------------------|------------9---|----------------|


  |   |   |   |     
G|----------------| 
D|----------------|
A|9-7-7-6-7-7-6---| 
E|--------------9-| 



  1:02 - "Turn turn, I wish you'd learn..."

  |   |   |   |    |   |   |   |    |   |   |   |   
G|----------------|----------------|----------------|
D|----9-----------|----9-----------|----9-----------|
A|--------7-6-----|--------7-6-----|--------7-6-7---|
E|7-----------9-7-|------------9-7-|----------------|


  |   |   |   |    |   |   |   |    |   |   |   |    |   |   |   |   
G|------9---9-----|----------------|----------------|----------------|
D|7-----------7---|------7---7-----|----9-----------|----9-----------|
A|----------------|7-----------7---|--------7-6-----|--------7-6-----|
E|--------------9-|----------------|7-----------9-7-|------------9-7-|


  |   |   |   |    |   |   |   |    |   |   |   |    |   |   |   |   
G|----------------|----------------|----------------|------9---9-----|
D|----9-----------|----9-----------|----9-----------|7-----------7---|
A|--------7-6-----|--------7-6-----|--------7-6-7---|----------------|
E|7-----------9-7-|------------9-7-|----------------|--------------9-|


  |   |   |   |    |   |   |   |    |   |   |    |    |    |   |    |   
G|----------------|----------------|-----------------|------------------|
D|------7---7-----|----9-----------|----9-8-9-11-9-8-|------------------|
A|7-----------7---|--------7-6-----|-----------------|11-----9h11-----9h|
E|----------------|7-----------9-7-|-----------------|------------------|


  |    |   |    |    |   |   |   |    |   |   |   |    |    |   |    |  
G|------------------|----------------|----------------|------------------|
D|------------------|----------------|----------------|------------------|
A|11-----9h11-9-7-6-|7---7-6-7-6-----|----------6-7-9h|11-----9h11-----9h|
E|------------------|------------9-7-|7-----7-9-------|------------------|


  |    |   |    |    |   |   |   |    |   |   |   |    |   |   |   |   
G|------------------|----------------|----------------|----------------|
D|------------------|----------------|----------------|----------------|
A|11-----9h11-9-7-6-|7---7-6-7-6---9-|9-9-9-9-9-9-9-9-|9-7-7-6-7-7-6---|
E|------------------|------------9---|----------------|--------------9-|



 1:43 - "Stone me, why can't you see..."

  |   |   |   |    |   |   |   |    |   |   |   |    |   |   |   |   
G|----------------|----------------|----------------|------9---9-----|
D|----9-----------|----9-----------|----9-----------|7-----------7---|
A|--------7-6-----|--------7-6-----|--------7-6-7---|----------------|
E|7-----------9-7-|------------9-7-|----------------|--------------9-|


  |   |   |   |    |   |   |   |    |   |   |   |    |   |   |   |   
G|----------------|----------------|----------------|----------------|
D|------7---7-----|----9-----------|----9-----------|----9-----------|
A|7-----------7-7-|--------7-6-----|--------7-6-----|--------7-6-----|
E|----------------|7-----------9-7-|------------9-7-|7-7---------9-7-|


  |   |   |   |    |   |   |   |    |   |   |   |    |   |   |   |   
G|----------------|----------------|------9---9-----|----------------|
D|----9-----------|----9-----------|7-----------7---|------7---7-----|
A|--------7-6-----|--------7-6-7---|----------------|7-----------7-7-|
E|------------9-7-|----------------|--------------9-|----------------|


  |   |   |   |    |   |   |    |    |    |   |    |    |    |   |    |   
G|----------------|-----------------|------------------|------------------|
D|----9-----------|----9-8-9-11-9-8-|------------------|------------------|
A|--------7-6-7---|-----------------|11-----9h11-----9h|11-----9h11-9-7-6-|
E|7-------------7-|-----------------|------------------|------------------|


  |   |   |   |    |   |   |   |    |    |   |    |    |    |   |    |   
G|----------------|----------------|------------------|------------------|
D|----------------|----------------|------------------|------------------|
A|7---7-6-7-6-----|----------6-7-9h|11-----9h11-----9h|11-----9h11-9-7-6-|  
E|------------9-7-|7-----7-9-------|------------------|------------------|


  |   |   |   |    |   |   |   |    |   |   |   |   
G|----------------|----------------|----------------|
D|----------------|----------------|----------------|
A|7---7-6-7-6---7h|9---9-7h9-9-7h9-|--9-9-7h9-7-6---|
E|------------9---|----------------|--------------9-|



 2:24 - "I am the resurrection..."

  |   |   |   |    |   |   |   |    |   |   |   |    |   |   |   |    
G|----------------|----------------|----------------|----------------|
D|----------------|----------------|9-----9---------|9-----9---------|
A|7-----7-------6-|7-----7-----7---|------------7h9-|------------9---|
E|------------7---|----------------|----------------|----------------|


  |   |   |   |    |   |   |   |    |   |   |   |    |    |   |    |   
G|----------------|----------------|----------------|------------------|
D|----------------|----------------|9------9--------|------------------|
A|7-----7-------6-|7-----7-----7---|------------7h9-|11-----9h11-----9h|
E|------------7---|----------------|----------------|------------------|


  |    |    |    |    |   |   |   |    |   |   |   |    |    |    |    |
G|-------------------|----------------|----------------|--------------------|
D|-------------------|----------------|----------------|--------------------|
A|11------9h11-9-7-6-|7---7-6-7-6-----|----------6-7-9h|11---11-9h11---11-9h|
E|-------------------|------------9-7-|7-----7-9-------|--------------------|


  |    |    |    |    |   |   |   |    |   |   |   |    |    |    |    |   
G|-------------------|----------------|----------------|--------------------|
D|-------------------|----------------|----------------|--------------------|
A|11---11-9h11-9-7-6-|7---7-6-7-6---7-|7---------6-7-9h|11---11-9h11---11-9h|
E|-------------------|------------9---|------7-9-------|--------------------|


  |    |    |    |    |   |   |   |    |   |   |   |    |   |   |   |    
G|-------------------|----------------|----------------|----------------|
D|-------------------|----------------|----------------|----------------|
A|11---11-9h11-9-7-6-|7---7-6-7-6---7h|9---9-7h9-9-7h9-|--9-9-7h9-7-6---|
E|-------------------|------------9---|----------------|--------------9-|



 2:59 - "I am the resurrection..."

  |   |   |   |    |   |   |   |    |   |   |   |    |   |   |   |   
G|----------------|----------------|----------------|----------------|
D|----------------|----------------|9-----9---------|9-----9---------|
A|7-----7-------6-|7-----7-----7---|------------7h9-|------------9---|
E|------------7---|----------------|----------------|----------------|


  |   |   |   |    |   |   |   |    |   |   |   |    |    |   |    |    
G|----------------|----------------|----------------|------------------|
D|----------------|----------------|9-----9---------|------------------|
A|7-----7-------6-|7-----7-----7---|------------7h9-|11-----9h11-----9h|
E|------------7---|----------------|----------------|------------------|


  |    |   |    |    |   |   |   |    |   |   |   |    |    |    |    |   
G|------------------|----------------|----------------|--------------------|
D|------------------|----------------|----------------|--------------------|
A|11-----9h11-9-7-6-|7---7-6-7-6-----|----------6-7-9h|11---11-9h11---11-9h|
E|------------------|------------9-7-|7-----7-9-------|--------------------|


  |    |    |    |    |   |   |   |    |   |   |   |    |   |   |   |    
G|-------------------|----------------|----------------|----------------|
D|-------------------|----------------|----------------|----------------|
A|11---11-9h11-9-7-6-|7---7-6-7-6---9-|9-9-9-9-9-9-9-9-|9-7-7-6-7-7-6---|
E|-------------------|------------9---|----------------|--------------9-|


  |   |   |   |    |   |   |   |    |   |   |   |    |   |   |   |    
G|----------------|----------------|----------------|----------------|
D|----9-----------|----------------|----9-----------|----------------|
A|--------7-6-----|--7-7-6-7-7-6---|--------7-6-----|--7-7-6-7-7-6---|
E|7-----------9-7-|--------------9-|7-----------9-7-|--------------9-|


  |   |   |   |    |   |   |   |     
G|----------------|----------------|
D|----9-----------|----------------|
A|--------7-6-----|--7-7-6-7-7-6---|
E|7-----------9-7-|--------------9-|



 3:39 - Bass Solo  (Rhythm slows slightly from here)

  |   |     |     |     
G|----------------------|
D|9---7h9---7h9---7h9---|        
A|----------------------|
E|----------------------|


   |   |   |     |    |   |   |   |      
G||------------------|----99-9-9-9----7-||
D||9---9--9----7-9---|--7---------7h9---||  x2
A||--------7h9-----7-|------------------||
E||------------------|------------------||


   |   |   |    |     |   |   |   |     
G||------------------|-----------------||
D||9---9--9----7-9---|---------------7-||  x8
A||--------7h9-----7-|--7---6-7---7h9--||
E||------------------|-----------------||



 4:22 - Guitar Break

  |   |   |   |  
G|-----------------|
D|-----------------|
A|777---7---7----5-|
E|------------5h7--|


   |    |   |   |      
G||-----------------||
D||-----------------||  x15
A||-----------------||
E||7*-------------5h||


   |    |   |   |    |    |   |   |    |    |   |   |    |    |   |   |   
G||-----------------|-----------------|-----------------|-----------------||
D||-----------------|-----------------|-----------------|-----------------||  x2
A||-----------------|-----------------|-----------------|-----------------||
E||7*---------------|5*---------------|0*---------------|7*-------------5h||


   |    |   |   |      
G||-----------------||
D||-----------------||  x4
A||-----------------||
E||7*-------------5h||


  |   |   |   |     
G|----------------|
D|----------------|
A|----------------|
E|7---------------|



 5:19 - Break

  |       |       |       |      |   |   |   |    |   |   |   |
G|7h9p7h9p7h9-7h9p7h9p7h9-7-9^*-|----------------|----------------|
D|------------------------------|----------------|----------------|
A|------------------------------|----------------|----------------|
E|------------------------------|----------------|----------------|


   |   |   |   |    
G||----------------||
D||----------------||  x3
A||----------------||
E||7-7-7--7-7-77-5h||


   |    |   |   |    
G||-----------------||
D||-----------------||  x12
A||-----------------||
E||7*-------------5h||


  |    |   |   |    |    |   |   |    |    |   |   |    |    |   |   |   
G|-----------------|-----------------|-----------------|-----------------|
D|-----------------|-----------------|-----------------|-----------------|
A|-----------------|-----------------|-----------------|-----------------|
E|7*---------------|5*---------------|0*---------------|7*-------------5h|


  |    |   |   |    |    |   |   |    |    |   |   |    |    |   |   |   
G|-----------------|-----------------|-----------------|-----------------|
D|-----------------|-----------------|-----------------|-----------------|
A|-----------------|-----------------|-----------------|-----------------|
E|7*---------------|5*---------------|0*---------------|7*---------------|


  |    |   |   |    |    |   |   |    
G|-----------------|-----------------|
D|-----------------|-----------------|
A|-----------------|-----------------|
E|7*---------------|7*---------------|



 6:17 - Break

  |   |   |   |     |   |   |   |    
G|-----------------|-----------------|
D|-----------------|-----------------|
A|-----------------|-----------------|
E|--------------5*-|--------------0*-|


   |   |   |   |   
G||-----------------||
D||-----------------||  x6
A||-----------------||
E||--------------7*-||


  |   |   |   |     |   |   |   |     |   |   |   |  
G|-----------------|-----------------|-----------------|
D|-----------------|-----------------|-----------------|
A|-----------------|-----------------|-----------------|
E|------------7-5*-|------------5-0*-|------------5-7*-|


   |   |   |   |     
G||-----------------||
D||-----------------||  x4
A||-----------------||
E||------------7-7*-||


  |   |   |   |     |   |   |   |     |   |   |   |     |   |   |   |   
G|-----------------|-----------------|-----------------|-----------------|
D|-----------------|-----------------|-----------------|-----------------|
A|-----------------|-----------------|-----------------|-----------------|
E|--------------7*-|--------------5*-|--------------0*-|--------------7*-|
                                                                            

  |   |   |   |     |   |   |   |    |   |   |   |    |   |   |   |   
G|-----------------|----------------|----------------|----------------|
D|-----------------|----------------|----9-----------|----9-----------|
A|-----------------|----------------|--------7-6-----|--------7-6-----|
E|--------------7*-|--------------7-|------------9-7-|------------9-7-|


  |   |   |   |    |   |   |   |     |   |   |   |     |   |   |   |   
G|----------------|-----------------|-----------------|----------------|
D|----9-----------|----9------------|-----------------|----------------|
A|--------7-6-----|--------7-9------|-----------------|----------------|
E|------------9-7-|------------9-5*-|--------------0*-|----------------|


  |   |   |   |    |   |   |   |    |   |   |   |    |   |   |   |   
G|----------------|----------------|----------------|----------------|
D|----9-----------|----9-----------|----9-----------|----9-----------|
A|--------7-6-----|--------7-6-----|--------7-6-----|--------7-6-----|
E|7-----------9-7-|------------9-7-|------------9-7-|------------9-7-|


  |   |   |   |    |   |   |   |     |   |   |   |     |   |   |   |   
G|----------------|-----------------|-----------------|----------------|
D|---9------------|----9------------|-----------------|----------------|
A|--------7-6-----|--------7-6------|-----------------|----------------|
E|------------9-7-|------------9-5*-|--------------0*-|--------------7-|


  |   |   |   |    |   |   |   |     |   |   |   |    |   |   |   |   
G|----------------|-----------------|----------------|----------------|
D|----9-----------|----9------------|----------------|----------------|
A|--------7-6-----|--------7-6------|----------------|----------------|
E|------------9-7-|------------9-7*-|----------------|----------------|





Comments


Popular Stone Roses tabs & chords
I Wanna Be Adored Bass Tabs
Tightrope 1 Chords
Where Angels Play Chords
How Do You Sleep Tabs
I Wanna Be Adored Tabs
Love Spreads 1 Tabs
Sally CinnamonIntro Tabs
She Bangs The Drums Tabs
The Sun Still Shines Tabs
How Do You Sleep Ukulele


Song lyrics



↑ Back to top | Tablatures and chords are parodies/interpretations of the original songs. You may use it for private study, scholarship, research or language learning purposes only
© 2014 AZChords.com Contact us | Privacy policy | DMCA | Add/correct tabs | Request tabs | Top 50 tabs