>
 >
Waterfall

Waterfall Guitar Tabs

Stone Roses - Waterfall chords, tabs, tablatures, lyrics

Guitar lessons | Add/correct | Request | Top 50 tabs Artists:  A B C D E F G H I J K L M N O P Q R S T U V W X Y Z 0-9

Waterfall Guitar Tabs – Stone Roses

CD, Sheet music, Poster

Do you like Waterfall? Share with your friends now
Bass TabsBass Tabs v2Bass Tabs v3ChordsDrum TabsTabsTabs v2Tabs v3Tabs v4Tabs v5Tabs v6Ukulele
Tuning: Standard


 “Chimes sing Sunday morn…………………………”

e|-------------------------|
B|----3--------------------|
G|------2------0---0-------|
D|--0-----0--0---4---------|
A|-------------------------|
E|-------------------------|


 “To steal what she never could own………………………………………”

e|--------------------------------------------0-0------|
B|----3----3-----3-----3-----3-----3-----3----3---3----|
G|--0---0----0-----0-----0-0---0-----0-----0--0--------|
D|--------4----2-----2-----------4-----2------2--------|
A|--------------------------------------------0--------|
E|--------------------------------------------x--------|

 “She’ll carry on through it all…………………………”
 
e|--------------------0----|
B|----3-----3---------3----|
G|--0---0-----0-------0----|
D|--------4-----2-----2----|
A|--------------------0----|
E|--------------------x----|



Faster part leading into the solo 

e|------------------------7--------------------------------------------------x-|
B|---8-----10-8-----8-------8---10-8-7h8-7----8-----10-8-----8-----8-7-5-3-2-3-|
G|-----9--------7h9-----0-----0-----------------9--------7h9-----0-----------2-|
D|-------9----------------------------------------9--------------------------0-|
A|-7----------------------------------------7--------------------------------0-|
E|---------------------------------------------------------------------------x-|

Solo

e|--0-0-----0-0------------------------------------------------------------|
B|--3---3---3---3----------------------------------------------------------|
G|--2-----2-2-----2---2/p0-------------------------------------------------|
D|--0-------0-------------2/p0-----0-0----2/p0------0-0---2-4-5-4-2-0-0----|
A|--0-------0------------------2h3--------------2h3------------------------|
E|--x-------x--------------------------------------------------------------|

Solo Continued

e|--------x--x--x-x----------|
B|--------3--3--3-3----------|
G|--------2--2--2-2----------|
D|------0-0--0--0-0----0-----| Repeat this a few times (not sure how many!)
A|--2h3---0--0--0-0—2h3------|
E|--------x--x--x-x----------|

And then this bit leads to the outro :

e|--0-0------0-0-------------|
B|--3---3----3---3-----------|
G|--2-----2--2-----2---------|
D|--0--------0---------------|
A|--0--------0---------------|
E|--x--------x---------------|

And the outro goes a little something like this :

e|---------------------------|
B|---3-----------------------|
G|-----2---0-0-0---0---------| Repeat to Fade
D|--0----0------h4-----------|
A|---------------------------|
E|---------------------------|

There is another bit to the outro Squire does it at Blackpool live
Its also on the record but overdubbed on top of the main outro riff
I don’t know how to tab Bends out so I’ve put a Slide symbol there instead but
its not a Slide its a Bend! If anyone can show me please post it in the comments
Ta
Anyway it goes a bit like this : 

e|------------------------------------|
B|--3-------3-------3---------3-------|
G|----5/(6)---5/(6)---5/(6)---5/(6)---| 
D|------------------------------------|
A|------------------------------------|
E|------------------------------------|


| /  slide up
| \  slide down
| h  hammer-on
| p  pull-off
| ~  vibrato
| +  harmonic
| x  Mute note





Comments


Popular Stone Roses tabs & chords
Made Of Stone 3 Bass Tabs
She Bangs The Drums 5 Bass Tabs
Waterfall Bass Tabs
Elephant Stone Chords
I Am The Resurrection Chords
Elizabeth My Dear Tabs
Mersey Paradise 1 Tabs
Tears Tabs
I Wanna Be Adored Ukulele
Sugar Spun Sister Ukulele


Song lyrics



↑ Back to top | Tablatures and chords are parodies/interpretations of the original songs. You may use it for private study, scholarship, research or language learning purposes only
© 2014 AZChords.com Contact us | Privacy policy | DMCA | Add/correct tabs | Request tabs | Top 50 tabs