» » »

Crossfire Bass tabs (ver.1)

Artists:  A B C D E F G H I J K L M N O P Q R S T U V W X Y Z # 

Crossfire Bass tabs (ver.1)

Stevie Ray Vaughan
Rating:
5/5 (3 votes)

Hard to play? Try these video lessons and learn fast.
                Tuning - Half step down

I didn't think the other tab of this was very accurate
so i tabbed it out myself.

Intro/Verse
Gb---------------------------------------|
Db---------------------------------------|
Ab---------5-5-----5-5------5---5-7------|
Eb-0-0-4-7-------7--------7---7----------|

Fill 1 - 1:55
Gb-12-13---------------------------|
Db-------14-12----12---------------|
Ab-------------14----14-10-11------|
Eb---------------------------------|

Fill 2 - 3:33
G-------------------------|
D-5-6---------------------|
A-----7-5---5-------------|
E---------7---7-3-4-------|

Bridge
Gb---------------------------------------|
Db-----------5\--------------7\----------|
Ab---------------------------------------|
Eb-3-3-3-3-3------0-5-5-5-5--------------|

Gb---------------------------------------|
Db-------------5\------------------------|
Ab---------------------------------------|
Eb-0-3-3-3-3-3------0---5-5-5-5-5---12\--|

Well thats it, i think its pretty close to perfect
but any corrections are welcome
            
Hard to play? Try these video lessons and learn fast. | Correct




comments powered by Disqus
↑ Back to top | Tablatures and chords are parodies/interpretations of the original songs. You may use it for private study, scholarship, research or language learning purposes only