» » »

Stevie Ray Vaughan, Change It Tabs (ver.2)

Artists:  A B C D E F G H I J K L M N O P Q R S T U V W X Y Z # 

Change It Tabs (ver.2)

Stevie Ray Vaughan Tabs
 Rating:
4/5 (4 votes)
Change It lessons Tabs too difficult? Try these video lessons and learn fast
                (Live)
                                  Change It (Live)
                        As recorded by Stevie Ray Vaughan
                          (From the album "In Step")


X\\ = slide down
x//= slide up
//x = slide into a note
\\x = slide into a note
---- PM = palm mute
* = harmonic
xby = bend x note to y pitch
xbydx = bend up to y pitch and then back down to original x pitch 
v = vibrato
h = hammer on
p = pull off

---------------------------

Chords:
For this song use the bar chords
Am    |577555|
Am7-5 |567888|
G     |355433|
F     |133211|

 Intro Solo

|-10b12d10-8----------|-8--8b10d8-8v--17\\-|----8-10b12-10-8------|----------------------|
|-----------10v--10-10|---------------17\\-|-10--------------10-8-|----------------------|
|---------------------|--------------------|----------------------|-7b8d7p5---5h7b9------|
|---------------------|--------------------|----------------------|---------7-------7\\--|
|---------------------|--------------------|----------------------|----------------------|
|---------------------|--------------------|----------------------|----------------------|

Verse (Shuffle it very similarly to cold shot) Here make the chord and shuffle the base notes tabbed out..
 Am                 Am7-5            Am                 Am7-5   
|------------------|----------------|------------------|-----------------|
|------------------|----------------|------------------|-----------------|
|------------------|----------------|------------------|-----------------|
|------------------|----------------|------------------|-----------------|
|----------7-7-----|-----6-6----6-6-|----------7-7-----|-----6-6-----6-6-|
|-5-5--8-8-----8-8-|-5-5-----5-5----|-5-5--8-8-----8-8-|-5-5-----5-5-----|

 Am                 G                F                 Am                 Am
|------------------|----------------|-----------------|------------------|------------------|
|------------------|----------------|-----------------|------------------|------------------|
|------------------|----------------|-----------------|------------------|------------------|
|------------------|----5-5-----5-5-|-----3-3-----3-3-|------------------|------------------|
|----------7-7-----|----------------|-----------------|----------7-7-----|----------7-7-----|
|-5-5--8-8-----8-8-|-3-3-----3-3----|-1-1-----1-1-----|-5-5--8-8-----8-8-|-5-5--8-8-----8-8-|

Play the verse twice


Chorus (played twice)(play these chords in the shuffle fassion)
 Badd9 Aadd9  F   Am
|-9---|-7---|-1-|-5-|
|-7---|-5---|-1-|-5-|
|-8---|-6---|-2-|-5-|
|-9---|-7---|-3-|-7-|
|-9---|-7---|-3-|-7-|
|-7---|-5---|-1-|-5-|
            
Submit corrections

comments powered by Disqus
↑ Back to top | Stevie Ray Vaughan Tabs for Change It. Lyrics for acoustic guitar and electric guitar. Tablatures and chords are parodies/interpretations of the original songs. You may use it for private study, scholarship, research or language learning purposes only