» » »

Staind, Crawl Tabs (ver.2)

Artists:  A B C D E F G H I J K L M N O P Q R S T U V W X Y Z # 

Crawl Tabs (ver.2)

Staind Tabs
Rating:
0/5 (0 votes)
Crawl lessons Tabs too difficult? Try these video lessons and learn fast
                STAIN-Dysfunction-Crawl

The trick with the sqeeky sound is to push down the Bb String 
with the middle-finger right over the bridge pick up and let 
the string slap back over the indicated fret to ring the harmonic.
Took me a long time to figure it out especially when u don´t know
the right tuning.
I´m very positve about this tab any qeststions to e-mail

Note: The sqeeky sound may not sound as good ass 
on the record as nearly no-one has a Novax- With fanned frets
as mike uses it on this record.
It has a wider range of harmonics so... try it out
To fix this turn dist. knob to full 

Sign Index:
x mute
/ slide
v push down
3.5 pos between 3rd & 4th fret etc

Tunig: Bb Db ab db gb bb

Inrto
Rhy.Fig.1
|-------------------------------|-----------------------------------
|-------------------------------|-----------------------------------
|-0---x-x---------0---x-x-------|-----------------------------------
|-0---x-x-3/0-x-x-0---x-x-3---3-|-----------------------------------
|-0---x-x-3/0-x-x-0---x-x-3---3-|-----------------------------------
|-------------------------------|-v---4---v---3.5---v---3---v---2.5-
                                  \_______ harmonics________________

Verse
Rhy.Fig.2a
|-------------------------------|-------------------------------
|-------------------------------|-------------------------------
|-0---x-x---------0---x-x-------|-0---x-x---------0---x-x-------
|-0---x-x-3/0-x-x-0---x-x-3-----|-0---x-x-3/0-x-x-0---x-x-3-----
|-0---x-x-3/0-x-x-0---x-x-3-----|-0---x-x-3/0-x-x-0---x-x-3-----
|-------------------------------|-------------------------------
                           I´m so ...
Rhy.Fig.2b
|-------------------------------
|-------------------------------
|-0---0-----------0---0---3-----
|-0---0---3-------0---0---3-----
|-0---0---3-------0---0---3-----
|-------------------------------
  scratched and ....
play this part 4x then  hamonic part from Rhy.Fig.1a

|-----------------------------------
|-----------------------------------
|-----------------------------------
|-----------------------------------
|-----------------------------------
|-v---4---v---3.5---v---3---v---2.5-
  \_______ harmonics________________


Chorus
Rhy.Fig.3 Git1
|-------------------------------|--------------------------
|-------------------------------|--------------------------
|-------------------------------|--------------------------
|-9-----------------------------|-9------------------------
|-0-----------------------------|-0------------------------
|-------------------------------|--------------------------

|-------------------------------|--------------------------
|-------------------------------|--------------------------
|-7-----------------------------|-7------------------------
|-x-----------------------------|-x------------------------
|-4-----------------------------|-4------------------------
|-0-----------------------------|-0------------------------

Rhy.Fig.3 Git2
|--------------10---------------|------------10------------
|-11/9------9---------11--------|-11/9-----9--------11-----
|-------12----------------------|-------12-----------------
|-------------------------------|--------------------------
|-------------------------------|--------------------------
|-------------------------------|--------------------------

|-------------------------------|--------------------------
|-------------------------------|--------------------------
|--------11--12-11----11--------|-------11--12-11----11----
|-------------------------------|--------------------------
|-------------------------------|--------------------------
|-------------------------------|--------------------------


Bridge
Smooth part
|-----------------------------------|----------------------------------
|-----------------------------------|----------------------------------
|-----------------------------------|----------------------------------
|-----------------------------------|----------------------------------
|-----------4/3-------------6/4-----|----------4/3-------------6/4-----
|-4/6-6-6-6-----4-2/4-4-4-4-----6-4-|4/6-6-6-6-----4-2/4-4-4-4-----6-4-

Freak Out 
|----------------------------------|----------------------------------
|----------------------------------|----------------------------------
|----------------------------------|----------------------------------
|----------4---------------6-------|--------4---------------6---------
|----------4/3-------------6/4-----|--------4/3-------------6/4-------
|-4-6-4-6------4-2-2-4-2-4-----6-4-|4-6-4-6-----4-2-2-4-2-4-----6-4---

 Everything fal.....!!!

Ending Pattern of Bridge
|----------------------------------|----------------------------------
|----------------------------------|----------------------------------
|----------------------------------|----------------------------------
|----------4---------------6-------|--------4-------------------------
|----------4/3-------------6/4-----|--------4/3-----------------------
|-4-6-4-6------4-2-2-4-2-4-----6-4-|4-6-4-6-----4-2-4-5-6-5-4/2-------

Rock guys!!
            

comments powered by Disqus
↑ Back to top | Staind Tabs for Crawl. Lyrics for acoustic guitar and electric guitar. Tablatures and chords are parodies/interpretations of the original songs. You may use it for private study, scholarship, research or language learning purposes only