» » »

Staind, Crawl Tabs (ver.1)

Artists:  A B C D E F G H I J K L M N O P Q R S T U V W X Y Z # 

Crawl Tabs (ver.1)

Staind Tabs
 Rating:
3.1/5 (7 votes)
Crawl lessons Tabs too difficult? Try these video lessons and learn fast
                Band: Staind
Tuning: Drop Db

Intro
Eb|----------------------------------------|
Bb|----------------------------------------|
Gb|----------------------------------------|
Db|--3p0-x-3p0-x-3p0-x-3--7---7---7---7----|
Ab|--3p0-x-3p0-x-3p0-x-3-------------------|	 
Db|--3p0-x-3p0-x-3p0-x-3----7---7---7---7--|
			  \____Harm_____/ 
Verse
Eb|-----------------------|
Bb|-----------------------|
Gb|-----------------------|
Db|--3p0-x-3p0-x-3p0-x-3--|
Ab|--3p0-x-3p0-x-3p0-x-3--|
Db|--3p0-x-3p0-x-3p0-x-3--|

Pre-Chorus
Eb|---------------------------------------------------------------|
Bb|---------------------------------------------------------------|
Gb|---------------------------------------------------------------|
Db|--3p0-0-0-3--3p0-0-0-3--3p0-0-0-3--3p0-0-0-3--7---7---7---7----|
Ab|--3p0-0-0-3--3p0-0-0-3--3p0-0-0-3--3p0-0-0-3-------------------|
Db|--3p0-0-0-3--3p0-0-0-3--3p0-0-0-3--3p0-0-0-3----7---7---7---7--|
   PM    ^ ^        ^ ^        ^ ^        ^ ^    \____Harm_____/

Chorus           guitar 1
Eb|---------------------------------------------------------|
Bb|-----------10---------------10------------10---------10--|
Gb|--11-9-7-9----11---11-9-7-9----11-----7-9--------7-9-----|
Db|------------------------------------9----------9---------|
Ab|---------------------------------------------------------|
Db|---------------------------------------------------------|
		 guitar 2 
Eb|-----------------------------------|  <-----------|
Bb|-----------------------------------|  I'm not sure|
Gb|-----------------------------------|   about this |
Db|--0---7---0---7\---0---7---0---7---|      part    |
Ab|--0---7---0---7\---0---7---0---7---|              |
Db|--0---7---0---7\---0---7---0---7---|  <-----------|
 
Bridge
Eb|-----------------------------------|
Bb|-----------------------------------|
Gb|-----------------------------------|
Db|-----------------------------------|
Ab|-----------------------------------|
Db|--0-3-0-0-3-2-0-0-0-3-0-0-6-5-0-0--|
  PM \_____/     \_________/     \_/

Eb|-----------------------------------|
Bb|-----------------------------------|
Gb|-----------------------------------|
Db|--0-3-0-0-3-2-0-0-0-3-0-0-6-5-0-0--|
Ab|--0-3-0-0-3-2-0-0-0-3-0-0-6-5-0-0--|
Db|--0-3-0-0-3-2-0-0-0-3-0-0-6-5-0-0--|
  PM \_____/     \_________/     \_/
            
Submit corrections

comments powered by Disqus
↑ Back to top | Staind Tabs for Crawl. Lyrics for acoustic guitar and electric guitar. Tablatures and chords are parodies/interpretations of the original songs. You may use it for private study, scholarship, research or language learning purposes only