>
 >
All I Want 2

All I Want 2 Guitar Tabs

Staind - All I Want 2 chords, tabs, tablatures, lyrics

Guitar lessons | Add/correct | Request | Top 50 tabs Artists:  A B C D E F G H I J K L M N O P Q R S T U V W X Y Z 0-9

All I Want 2 Guitar Tabs – Staind

CD, Sheet music, Poster

Do you like All I Want 2? Share with your friends now
ChordsChords v2Chords v3Chords v4TabsTabs v2UkuleleUkulele v2
Staind - All I want (acoustic)




Tuning: 1/2 step down, then:

	D# 
	C# - tune up 1 and 1/2 step
	G# - up 1 step
	C# 
	G# 
	C# - down 1 step





Intro, Verse and Chorus

D#|-0---0--0-0--0-0--0---|-0---0--0-0--0-0--0---|-0---0--0-0--0-0--0---|-0---0--0-0--0-0--0---|
C#|-0---0--0-0--0-0--0---|-0---0--0-0--0-0--0---|-0---0--0-0--0-0--0---|-0---0--0-0--0-0--0---|
G#|-0---0--0-0--0-0--0---|-0---0--0-0--0-0--0---|-0---0--0-0--0-0--0---|-0---0--0-0--0-0--0---|
C#|-0---0--0-0--0-0--0---|-9---9--9-9--9-9--9---|-7---7--7-7--7-7--7---|-5---5--5-5--5-5--5---|
G#|-0---0--0-0--0-0--0---|-9---9--9-9--9-9--9---|-7---7--7-7--7-7--7---|-5---5--5-5--5-5--5---|
C#|-0---0--0-0--0-0--0---|-9---9--9-9--9-9--9---|-7---7--7-7--7-7--7---|-5---5--5-5--5-5--5---|



Interlude


D#|-0---0--0-0--0-0--0---|-0---0--0-0--0-0--0---|    
C#|-0---0--0-0--0-0--0---|-0---0--0-0--0-0--0---|    
G#|-0---0--0-0--0-0--0---|-0---0--0-0--0-0--0---|    
C#|-9---9--9-9--9-9--9---|-2---2--2-2--5-5--5---| X3
G#|-9---9--9-9--9-9--9---|-2---2--2-2--5-5--5---|    
C#|-9---9--9-9--9-9--9---|-2---2--2-2--5-5--5---|   

D#|0--0--0--0--0--0--0--0|0--0--0--0--0--0--0--0|0--0--0--0------------|
C#|0--0--0--0--0--0--0--0|0--0--0--0--0--0--0--0|0--0--0--0------------|
G#|0--0--0--0--0--0--0--0|0--0--0--0--0--0--0--0|0--0--0--0------------|
C#|9--9--9--9--9--9--9--9|2--2--2--2--2--2--2--2|5--5--5--5------------| X1
G#|9--9--9--9--9--9--9--9|2--2--2--2--2--2--2--2|5--5--5--5------------|
C#|9--9--9--9--9--9--9--9|2--2--2--2--2--2--2--2|5--5--5--5------------|





Comments


Popular Staind tabs & chords
Epiphany 3 Bass Tabs
Not Again Bass Tabs
Warm Safe Place Bass Tabs
Failing Chords
Its Been Awhile Chords
Spleen Chords
The Corner 1 Chords
Can't Believe 1 Tabs
Cant Believe 3 Tabs
So Far Away Standard 1 Tabs


Song lyrics



↑ Back to top | Tablatures and chords are parodies/interpretations of the original songs. You may use it for private study, scholarship, research or language learning purposes only
© 2014 AZChords.com Contact us | Privacy policy | DMCA | Add/correct tabs | Request tabs | Top 50 tabs