» » »

All I Want Tabs (ver.2)

Artists:  A B C D E F G H I J K L M N O P Q R S T U V W X Y Z # 

All I Want Tabs (ver.2)

Staind
Rating:
0/5 (0 votes)

Hard to play? Try these video lessons and learn fast.
                -------------------------------------------------------------------------------
-------------------------------------------------------------------------------

Tuning: Distortion Guitar: Rythmn - Drop D down half a step
        Clean and Distorted Guitar II: Lead - Half-Step Down


I was just listening to the bands new album, "Illusion of Progress" and 
I really liked this song when I first heard. It takes that "short, sweet
and to the point" approach by making things simple music and lyric wise. 

All I Want is something I wasn't really expecting from Staind but
I just figured out Aarons part of the song. his rythmn is really simple.

He uses four chords throughout the song, I'm not sure about the bridge
or Mikes part yet but this tab could things started until the rest is 
figured out

(Update: 8/15/08)
 I figured out the melody to the intro that Mike plays and I'm pretty sure
it's right
(Update: 8/29/08)
I saw that Aaron uses four power chords and mike uses the traditional
first position chords.



Intro/Verse/Chorus

Rythmn Guitar: Distortion


eb|--------------------------------------------------------------------------|
Bb|--------------------------------------------------------------------------|
Gb|--------------------------------------------------------------------------|
Db|-----0---0---0---0---0---0---0---0---9---9---9---9---9---9---9---9--------|
Ab|-----0---0---0---0---0---0---0---0---9---9---9---9---9---9---9---9--------|
Db|-----0---0---0---0---0---0---0---0---9---9---9---9---9---9---9---9--------|


eb|--------------------------------------------------------------------------|
Bb|--------------------------------------------------------------------------|
Gb|--------------------------------------------------------------------------|
Db|-----7---7---7---7---7---7---7---7---5---5---5---5---5---5---5---5--------|
Ab|-----7---7---7---7---7---7---7---7---5---5---5---5---5---5---5---5--------|
Db|-----7---7---7---7---7---7---7---7---5---5---5---5---5---5---5---5--------|








Lead Guitar Intro: Distortion (Not too heavy)


eb|--------------------------------------------------------------------------|
Bb|---------------10--------------------10--------------------10-------------|
Gb|---------10---------10---------10----------10---------10---------10-------|
Db|-----7--------------------7----------------------9------------------------|
Ab|--------------------------------------------------------------------------|
Eb|--------------------------------------------------------------------------|



eb|--------------------------------------------------------------------------|
Bb|---------------10--------------------10------------------10---------------|
Gb|---------10---------10---------10----------10-------10-----------10-------|
Db|-----9--------------------7---------------------7-------------------------|
Ab|--------------------------------------------------------------------------|
Eb|--------------------------------------------------------------------------|


eb|---------------------10---------------------------------------------------|
Bb|----------------10-------------10-----------------------------------------|
Gb|---------10--------------------------10-----------------------------------|
Db|-----/7-------------------------------------------------------------------|
Ab|--------------------------------------------------------------------------|
Eb|--------------------------------------------------------------------------|




Verse

 Clean Guitar or Acoustic:


The chords used are

D    Bmin    Ab   Gb

2     2      0     3
3     3      2     0
2     4      2     0
0     4      2     0
0     2      0     2
x     x      0     3
   

The strumming isn't hard to figure out





Chorus


Rythmn Guitar: Distortion


eb|--------------------------------------------------------------------------|
Bb|--------------------------------------------------------------------------|
Gb|--------------------------------------------------------------------------|
Db|-----0---0---0---0---0---0---0---0---9---9---9---9---9---9---9---9--------|
Ab|-----0---0---0---0---0---0---0---0---9---9---9---9---9---9---9---9--------|
Db|-----0---0---0---0---0---0---0---0---9---9---9---9---9---9---9---9--------|


eb|--------------------------------------------------------------------------|
Bb|--------------------------------------------------------------------------|
Gb|--------------------------------------------------------------------------|
Db|-----7---7---7---7---7---7---7---7---5---5---5---5---5---5---5---5--------|
Ab|-----7---7---7---7---7---7---7---7---5---5---5---5---5---5---5---5--------|
Db|-----7---7---7---7---7---7---7---7---5---5---5---5---5---5---5---5--------|





Lead Guitar Chorus: Distortion (Not too heavy)


eb|--------------------------------------------------------------------------|
Bb|---------------10--------------------10--------------------10-------------|
Gb|---------10---------10---------10----------10---------10---------10-------|
Db|-----7--------------------7----------------------9------------------------|
Ab|--------------------------------------------------------------------------|
Eb|--------------------------------------------------------------------------|



eb|--------------------------------------------------------------------------|
Bb|---------------10--------------------10-------------------10--------------|
Gb|---------10---------10---------10----------10---------10----------10------|
Db|-----9--------------------7--------------------7--------------------------|
Ab|--------------------------------------------------------------------------|
Eb|--------------------------------------------------------------------------|


eb|---------------------10---------------------------------------------------|
Bb|----------------10-------------10-----------------------------------------|
Gb|---------10--------------------------10-----------------------------------|
Db|-----/7-------------------------------------------------------------------|
Ab|--------------------------------------------------------------------------|
Eb|--------------------------------------------------------------------------|





Bridge:

 Aaron plays: (repeat about 4x and then again palm muting the 2, 5 part)

eb|--------------------------------------------------------------------------|
Bb|--------------------------------------------------------------------------|
Gb|--------------------------------------------------------------------------|
Db|-----------9---9---9---9---9---9---9---9---2---2---2---5---5---5---5------|
Ab|-----------9---9---9---9---9---9---9---9---2---2---2---5---5---5---5------|
Db|-----------9---9---9---9---9---9---9---9---2---2---2---5---5---5---5------|


Mike's Solo: it's not hard at all

eb|--------------------------------------------------------------------------|
Bb|--------------------------------------------------------------------------|
Gb|-----4/6~---4/7~----4\2---2/4--2-------4/6~---4/7~--7--9--9-11-11-12-12---|
Db|-----------------------------------4--------------------------------------|
Ab|--------------------------------------------------------------------------|
Eb|--------------------------------------------------------------------------|

eb|--------------------------------------------------------------------------|
Bb|--------------------------------------------------------------------------|
Gb|-----4/6~---4/7~----4\2---2/4--2-------4/6~---4/7~--7--9--9-11-11-12-12---|
Db|-----------------------------------4--------------------------------------|
Ab|--------------------------------------------------------------------------|
Eb|--------------------------------------------------------------------------|

                                           *slide out*
eb|-----12-12-12-12-12-12---10-10-10-10-10\----------------------------------|
Bb|-----9--9--9--9--9--9----7--7--7--7--7-\----------------------------------|
Gb|-----9--9--9--9--9--9----7--7--7--7--7-\----------------------------------|
Db|--------------------------------------------------------------------------|
Ab|--------------------------------------------------------------------------|
Eb|--------------------------------------------------------------------------|



a solo acoustic bridge comes to strum the chords while doing some quick
and simple hammers ons


            *Quick hammer-on
              and pull off*                                     Then one
                  * *                * *                * *    simple strum
eb|---2---2--2-2-2h3p2---2---2--2-2-2-------7---7--7-7-7--------3-------3----|
Bb|---3---3--3-3-3-------3---3--3-3-2h3p2---7---7--7-7-7--------3-------3----|
Gb|---2---2--2-2-2-------4---4--4-4-4-------6---6--6-6-6h5p6----4-------0----|
Db|---0---0--0-0-0-------4---4--4-4-4-------7---7--7-7-7--------5--or---0----|
Ab|---0---0--0-0-0-------2---2--2-2-2-------7---7--7-7-7--------5-------2----|
Eb|-----------------------------------------5---5--5-5-5--------3-------3----|


Then the chorus comes on again play it twice and end of Db both power chord
for Aaron and first position for Mike. 
     
     



Verse 1:

What I leave,
When you go,
What I see,
And what you show,
And what I guess,
And when I don't,
Is something you all ready, all ready know,

Chorus:
I can't live without,
All I think about,
All I want is you,
You're all I dream about,
I can't live without,
All I want is you,

Verse2:

The things I do,
I go through,
And all I see,
When Im awake,
And what I make,
The sh*t that I take,
Is something you all ready, all ready know

Chorus:
I can't live without,
All I think about,
All I want is you,
You're all I dream about,
I can't live without,
All I want is you,


Bridge:
Ohhh,...
Is you,
Is you,
Is you,
Is you,
You're all I dream about,
That I can't live without,
All I want is you

Chorus:
I can't live without,
All I think about,
All I want is you,
You're all I dream about,
I can't live without,
All I want is you,
I just can't live without you,
When all I think about is you,
And all I want is you


any questions let me know


| /  slide up
| \  slide down
| h  hammer-on
| p  pull-off
| ~  vibrato
| +  harmonic
| x  Mute note
===============================================================================
            
Hard to play? Try these video lessons and learn fast. | Correct




comments powered by Disqus
↑ Back to top | Tablatures and chords are parodies/interpretations of the original songs. You may use it for private study, scholarship, research or language learning purposes only