» » »

Spinnerette, Valium Knights Bass tabs (ver.2)

Artists:  A B C D E F G H I J K L M N O P Q R S T U V W X Y Z # 

Valium Knights Bass tabs (ver.2)

Spinnerette Tabs
 Rating:
3.7/5 (6 votes)
Valium Knights lessons Tabs too difficult? Try these video lessons and learn fast
                Hi, this is the way that this song play's


INTRO
4---------1-1-1-1--3-3-3-3---|
3-1-1-1-1--------------------|
2----------------------------|
1----------------------------|

(Harvey Oswalds' dead and gone)

4---------1-1-1-1--3-3-3-3---|
3-1-1-1-1--------------------|
2----------------------------|
1----------------------------|

Chorus
(Fall into an abyss)

4---------------1-1-1-3-3-3-|
3--6-6-6--1-1-1-------------|
2---------------------------|
1---------------------------|

i'ts always the same way just in the bridge change a little but still play's the same notes

En la parte del puente siguen siendo las mismas notas pero con otro ritmo.

cualquier duda:
            
Submit corrections

comments powered by Disqus
↑ Back to top | Spinnerette Bass for Valium Knights. Lyrics for acoustic guitar and electric guitar. Tablatures and chords are parodies/interpretations of the original songs. You may use it for private study, scholarship, research or language learning purposes only