» » »

Spinnerette, Valium Knights Bass tabs (ver.1)

Artists:  A B C D E F G H I J K L M N O P Q R S T U V W X Y Z # 

Valium Knights Bass tabs (ver.1)

Spinnerette Tabs
 Rating:
4/5 (6 votes)
Valium Knights lessons Tabs too difficult? Try these video lessons and learn fast
1
                -----------------------------------------------------------------
-----------------------------------------------------------------

Tuning: Drop D (D A D G  Low to High) 


Listen to the track carefully for picking patterns if the tab isn't clear enough (y) 

Please rate ;)  

enjoy 
x 



Intro (0:05-0:14)
|-------|---------------------------------|
|-------|---------------------------------|
|-------|---------------------------------|
|-----/\|/8-8-8-8-3-3-3-3-5-5-5-5-555-555-|

|---------------------------------|
|---------------------------------|
|---------------------------------|
|-8-8-8-8-3-3-3-3-5-5-5-5-555-555-|




Verse / Main riff (0:15-0:32)  
|---------------------------------||
|---------------------------------||
|---------------------------------|| x4
|-8-8-8-8-3-3-3-3-5-5-5-5-555-555-||
 



Chorus (0:33-0:58) 
|-----------------------------------|
|------------------(1st fret)-------|
|/6666666666666666\1111111111111111-|
|-----------------------------------|
 
|-----------------------------------||
|-----------------------------------||
|-----------------------------------|| x3 
|-3333333333333333/5555555555555555-||



 
Bass Break (0:59-1:07)
|---------------------------------|
|---------------------------------| x 2
|---------------------------------|
|-8-8-8-8-3-3-3-3-5-5-5-5-555-555-|




Verse (1:07-1:25)  
|---------------------------------|
|---------------------------------| x 4
|---------------------------------|
|/8-8-8-8-3-3-3-3-5-5-5-5-555-555-|




Chorus (1:25-2:00)  
|-----------------------------------|
|------------------(1st fret)-------|
|/6666666666666666\1111111111111111-|
|-----------------------------------|
 
|-----------------------------------||
|-----------------------------------||
|-----------------------------------|| x4 
|/3333333333333333/5555555555555555-||




Outro (2:00-2:26) 
|---------------------------------|
|---------------------------------| x 3
|---------------------------------|
|-8-8-8-8-3-3-3-3-5-5-5-5-555-555-|

|-----------------------------------|
|-----------------------------------|
|-----------------------------------| x 4
|\88888888/33333333\555555555555555-|

(Last time) 
|-----------------------------------|
|-----------------------------------|
|-----------------------------------| 
|-88888888-33333333-555555555555\17/|

 




________________ 
Legend:
  /  - slide up 
  \  - slide down 
 /\  - slide into or out of (from/to "nowhere")

________________  
            
Submit corrections

comments powered by Disqus
↑ Back to top | Spinnerette Bass for Valium Knights. Lyrics for acoustic guitar and electric guitar. 1 Tablatures and chords are parodies/interpretations of the original songs. You may use it for private study, scholarship, research or language learning purposes only