>
 >
Valium Knights

Valium Knights Guitar Tabs

Spinnerette - Valium Knights chords, tabs, tablatures, lyrics

Guitar lessons | Add/correct | Request | Top 50 tabs Artists:  A B C D E F G H I J K L M N O P Q R S T U V W X Y Z 0-9

Valium Knights Guitar Tabs – Spinnerette

CD, Sheet music, Poster

Do you like Valium Knights? Share with your friends now
Bass TabsBass Tabs v2Tabs
 \ - /    = slides
(p) - (h) = hammer on - pull off
 x        = mute
 ~        = vibrato


e|--------------------|
b|--------------------|
g|--------------------|
d|--------------------|
a|--------------------|         just before the guitars come in
e|---0(h)6\0----------|

intro + verse

guitar1

e|-----------------------------------------|
b|-----------------------------------------|
g|-----------------------------------------|
d|3-3-3333---------------------------------|   (x6)
a|1-1-11113-3-33335-5-55555-5-5555---------|
e|--------1-1-11113-3-33333-3-3333---------|

chorus

guitar1

e|--------|
b|--------|
g|3/12~~~~
d|--------|
a|--------|
e|--------|

e|-------------------------------------|
b|-------------------------------------|
g|10(p)8~~~~10(p)7~~~~14/5~~~~7(p)3~~~~   (x2)
d|-------------------------------------|
a|-------------------------------------|
e|-------------------------------------|

chorus

at the same time guitar 2 does this
guitar2 (i'm not pretty sure it's a guitar)

e|--------------------------------------------|
b|16~~~~18-16-15-15~~~~15--13~~~~-------------|
g|-------------------------------15-14-12~~~~-| (x2)
d|--------------------------------------------|
a|--------------------------------------------|
e|--------------------------------------------|

after the chorus there's a part where just the bass plays,after then the guitar sounds like this

guitar 1

e|---15(p)13~~----------------------------|
b|------------15(p)13~~~~8(p)6~~----------|
g|------------------------------7(p)5~~~~-|
d|----------------------------------------|
a|----------------------------------------|
e|----------------------------------------|


verse

e|-----------------------------------------|
b|-----------------------------------------|
g|-----------------------------------------|
d|3-3-3333---------------------------------|   (x4)
a|1-1-11113-3-33335-5-55555-5-5555---------|
e|--------1-1-11113-3-33333-3-3333---------|


chorus

guitar1

e|--------|
b|--------|
g|3/12~~~~
d|--------|
a|--------|
e|--------|

e|-------------------------------------|
b|-------------------------------------|
g|10(p)8~~~~10(p)7~~~~14/5~~~~7(p)3~~~~   (x4)
d|-------------------------------------|
a|-------------------------------------|
e|-------------------------------------|


chorus

at the same time guitar 2 does this
guitar2 (i'm not pretty sure it's a guitar)

e|--------------------------------------------|
b|16~~~~18-16-15-15~~~~15--13~~~~-------------|
g|-------------------------------15-14-12~~~~-| (x4)
d|--------------------------------------------|
a|--------------------------------------------|
e|--------------------------------------------|

solo

e|--------8-10-8----------8-10-8-----------8-10-8-----------8-10-8---|
b|11--11--------11--------------11-----11--------11----11---------11-|
g|----------------10--10----------12-12--12--------12-12--12---------|
d|-------------------------------------------------------------------| (x2)
a|-------------------------------------------------------------------|
e|-------------------------------------------------------------------|


guitar 1

e|---15(p)13~~----------------------------|
b|------------15(p)13~~~~8(p)6~~----------|
g|------------------------------7(p)5~~~~-|
d|----------------------------------------|(x4)
a|----------------------------------------|
e|----------------------------------------|

at the same time
guitar 2

e|----------------------------------------------------|
b|----------------------------------------------------|
g|--xx---xx-------------------------------------------|
d|3-xx-3-xx-33---xx---xx-------xx---xx---xxx----------| (x4)
a|1-xx-1-xx-11-3-xx-3-xx-3-3-5-xx-5-xx-5-xxx-555555---|
e|-------------1-xx-1-xx-1-1-3-xx-3-xx-3-xxx-333333---|


ends on


e|-------|
b|-------|
g|-------|
d|5------|
a|5------|
e|3------|





Comments


Popular Spinnerette tabs & chords
Driving Song Bass Tabs
Ghetto Love Bass Tabs
Ghetto Love 1 Bass Tabs
Valium Knights Bass Tabs
Baptized By Fire Chords
Baptized By Fire 1 Chords
Driving Song Chords
A Spectral Suspension Tabs
Baptized By Fire Tabs
Baptized By Fire 1 Tabs


Song lyrics



↑ Back to top | Tablatures and chords are parodies/interpretations of the original songs. You may use it for private study, scholarship, research or language learning purposes only
© 2014 AZChords.com Contact us | Privacy policy | DMCA | Add/correct tabs | Request tabs | Top 50 tabs