» » »

Soapdish, Tensionado Bass tabs (ver.2)

Artists:  A B C D E F G H I J K L M N O P Q R S T U V W X Y Z # 

Tensionado Bass tabs (ver.2)

Soapdish Tabs
 Rating:
4.2/5 (5 votes)
Tensionado lessons Tabs too difficult? Try these video lessons and learn fast
                
Intro: A (3x)

G|----------------------------|------------------------------|
D|----------------------------|------------------------------|
A|----------------------------|------------------------------|
E|---5--55------5--55---------|---5--55----------5~----------|
          Pause      Pause              Pause    Tensionado...

Verse I: (Guitar Only) A2-C#m7-D-Dm-E

Chorus I:
G|----------------------------|------------------------------|
D|----------------------------|------------------------------|
A|----------------------------|------------------------------|
E|---5----------------4-------|-----5----------------4-------|
     Sandali lang..   Wag ka...   Di ko hahayaan..  Na ito...

G|----------------------------|------------------------------|
D|----------------------------|------------------------------|
A|------------------5---------|------5/7-5-4-5---------------|
E|---2------------------------|---5------------5----2--------|
  Ang iniisip ko,   kung pwede...

Interlude: A2-C#m7-D-Dm-E

G|----------------------------|------------------------------|
D|----------------------------|------------------------------|
A|----------------------------|---------------5-55-55-5------|
E|---5-55-55-5---4-44-44-4----|---2-22-22-2------------------|

Verese II:
G|----------------------------|------------------------------|
D|----------------------------|------------------------------|
A|----------------------------|---------------5-55-55-5------|
E|---5-55-55-5--4-44-44-4-----|---2-22-22-2------------------|
  At miserable..Paulit-ulit..   Nangyayari..  Paikot-ikot...

G|----------------------------|------------------------------|
D|----------------------------|------------------------------|
A|----------------------------|---------------5-55-55--------|
E|---5-55-55----4-44-44-------|---2-22-22--------------------|
   Bote..    at nasanay..  at nalimutan, ang aking mga tanong

Chorus II:

G|----------------------------|------------------------------|
D|----------------------------|------------------------------|
A|----------------------------|------------------------------|
E|---5-55-55-5----4-44-44-4---|---5-55-55-5----4-44-44-4-----|
 nde malinaw... pwede bang..    di ko hahayaan, lhat ito ay..

G|----------------------------|------------------------------|
D|----------------------------|------------------------------|
A|-----------------2--3/4-----|------5/7-5-4-5---------------|
E|---2-22-22-2----------------|---5------------5----2--------|
  nagtatanong.. kung pwede...  

Instrumental:A2-C#m7-D-Dm-E (2x)
G|----------------------------|------------------------------|
D|----------------------------|------------------------------|
A|----------------------------|---------------5-55-55-5------|
E|---5-55-55-5---4-44-44-4----|---2-22-22-2------------------| (2x)

Chorus III:

G|----------------------------|------------------------------|
D|----------------------------|------------------------------|
A|----------------------------|------------------------------|
E|---5-55-55-5----4-44-44-4---|---5-55-55-5----4-44-44-4-----|
 Sandali lng... wag ka munang..  di ko hahayaan, lhat ito ay..

G|----------------------------|------------------------------|
D|----------------------------|------------------------------|
A|----------------------------|------------------------------|
E|---5-55-55-5----4-44-44-4---|---5-55-55-5----4-44-44-4-----|
 Sandali lng... wag ka munang..  d ko hhyaan, pti ikw ay mawala

G|----------------------------|------------------------------|
D|----------------------------|------------------------------|
A|-----------------2--3/4-----|------5/7-5-4-5---------------|
E|---2-22-22-2----------------|---5------------5----2--------|
  nagtatanong sau.. kung pwede...  

Outro:
G|----------------------------|------------------------------|
D|----------------------------|------------------------------|
A|----------------------------|------------------------------|
E|---5--55------5--55---------|---5--55----------------------|
          Pause      Pause              Pause

Yan tapos na.. Xenxa na tinamad akong hanapin ung ekxaktong tipa..
Pero pwede na yan...(me Part2 yan ung eksaktong tipa)
Hi to all the band of Camarines Norte, sa mga taga Laco tsaka sa banda ko
Var-X Band... Mabuhay mga patay!!!
            
Submit corrections

comments powered by Disqus
↑ Back to top | Soapdish Bass for Tensionado. Lyrics for acoustic guitar and electric guitar. Tablatures and chords are parodies/interpretations of the original songs. You may use it for private study, scholarship, research or language learning purposes only