>
 >
Sana Sinabi

Sana Sinabi Guitar Tabs

Soapdish - Sana Sinabi chords, tabs, tablatures, lyrics

Guitar lessons | Add/correct | Request | Top 50 tabs Artists:  A B C D E F G H I J K L M N O P Q R S T U V W X Y Z 0-9

Sana Sinabi Guitar Tabs – Soapdish

CD, Sheet music, Poster

Do you like Sana Sinabi? Share with your friends now
ChordsChords v2TabsTabs v2Tabs v3Ukulele
version 2

Mga pipz.. paki rate po… hehehe.. gagawa pa ako ng lead dito…..

Likes: Playing guitar
Dislikes: Not playing guitar

Intro (4x)
 Kau na lng ang bahala kung paano nyo tataymingin ung strumming at plucking. 
 |---5-------------------------------5------------5-------5-----|
 |---5---------------5-------5-------7-------7-------7------7---|
 |---6----------6-------6-------6----6----6----6-------6------6-|
 |---7-------7-----7------7-------7--7--------------------------|
 |---7-------------------------------5--5-----------------------|
 |---5----5--------------------------5--------------------------|

 Tapos sa may huli ng intro ay may ganitong tunog..
 |---5---7--|
 |----------|
 |----------|
 |----------|
 |----------|
 |----------|

Verse (Repeat lng ng repeat)
 |---5-------------------------------5------------5-------5-----|
 |---5---------------5-------5-------7-------7-------7------7---|
 |---6----------6-------6-------6----6----6----6-------6------6-|
 |---7-------7-----7------7-------7--7--------------------------|
 |---7-------------------------------5--5-----------------------|
 |---5----5--------------------------5--------------------------|


 Chorus (4x)
 |---4—4-4----5-5-5---|
 |---5—5-5----7-7-7---|
 |---6-6-6----7-7-7---|
 |---6-6-6----7-7-7---|
 |---x-x-x----x-x-x---|
 |---x-x-x----x-x-x---|
 
Pre - end of chorus
        
 |---4-----------------------5------5----------------|
 |---5------------5----------7---------7-------------|
 |---6-------6-------6-------7---7---------7---------|
 |---6-----------------------7-----------------------|
 |---4----4------------------5-----------------------|
 |---4-----------------------5-----------------------|

 |---4------------5---5-5-5-|
 |---5------5-----7---6-6-6-|
 |---6---------6--7---7-7-7-|
 |---6------------7---7-7-7-|
 |---4--4---------5---5-5-5-|
 |---4------------5---5-5-5-|

Repeat intro
Repeat Verse 
Repeat Chorus


Bridge (4x) (sabay kang kumaskas sa may lead na part)

|-----3-3--5-5-5-|
|-----5-5--6-6-6-|
|-----4-4--7-7-7-|
|-----5-5--7-7-7-|
|-----3-3--5-5-5-|
|-----3-3--5-5-5-|

Sa ending part ng brigde to…

|-5----5----|
|-7----6----|
|-7----7----|
|-7----7----|
|-5----5----|
|-5----5----|
Repeat intro 
Repeat chorus (matagal tong part na to…)

 (Sa end tapos ng chorus ay ito yata..)

 |---5—5-5-------7-7---5--|
 |---6—6-6-------9-9---5--|
 |---7-7-7-------9-9---6--|
 |---7-7-7-------9-9---7--|
 |---5-5-5-------7-7---7--|
 |---5-5-5-------7-7---5--|

 ……………………………………………………………………………………………………………..

Sana magustohan nyo… Taga CEBU pala ako…. Wakokokocoke…..





Comments


Popular Soapdish tabs & chords
Kahit Maputi Na Ang Buhok Ko Bass Tabs
Adjust Chords
Sana Sinabi Chords
Tensionado 2 Chords
Tensionado 3 Chords
Would You Chords
Dahil Sa Ulan 1 Tabs
Tensionado Tabs
Tensionado 1 Tabs
Adjust Ukulele


Song lyrics



↑ Back to top | Tablatures and chords are parodies/interpretations of the original songs. You may use it for private study, scholarship, research or language learning purposes only
© 2014 AZChords.com Contact us | Privacy policy | DMCA | Add/correct tabs | Request tabs | Top 50 tabs