» » »

Pwede Ba Tabs (ver.1)

Artists:  A B C D E F G H I J K L M N O P Q R S T U V W X Y Z # 

Pwede Ba Tabs (ver.1)

Soapdish
Rating:
4/5 (7 votes)

Hard to play? Try these video lessons and learn fast.
                Tuning: Standard

pa xenxa na po..dko po nakuha ung sa lead ehh.. kc electric un at ung rhythm acoustic guitar lang.. 
========
Intro:x2
========

e-------------------------------------------------|
B-------------------------------------------------|
G--2-2-2-2-2---2-2-2-2-2---4-4-4-4-4---2-2-2-2-2--|
D--2-2-2-2-2---4-4-4-4-4---6-6-6-6-6---4-4-4-4-4--|
A--2-2-2-2-2---4-4-4-4-4---6-6-6-6-6---4-4-4-4-4--|
E-------------------------------------------------|

e---------------------------------------------P---|
B---------------------------------------------A---|
G--2-2-2-2-2---2-2-2-2-2---4-4-4-4-4---2-2-2--U---|
D--2-2-2-2-2---4-4-4-4-4---6-6-6-6-6---4-4-4--S---|
A--2-2-2-2-2---4-4-4-4-4---6-6-6-6-6---4-4-4--E---|
E---------------------------------------------!---|

========
Verse 1:
========

e-------------------------------------------------|
B-------------------------------------------------|
G--2-2-2-2-2---2-2-2-2-2---4-4-4-4-4---2-2-2-2-2--|
D--2-2-2-2-2---4-4-4-4-4---6-6-6-6-6---4-4-4-4-4--|
A--2-2-2-2-2---4-4-4-4-4---6-6-6-6-6---4-4-4-4-4--|
E-------------------------------------------------|
    pwede bang sabihin mo tinatago mo ang mga sulat ko

e-------------------------------------------------|
B-------------------------------------------------|
G--2-2-2-2-2---2-2-2-2-2---4-4-4-4-4---2-2-2-2-2--|
D--2-2-2-2-2---4-4-4-4-4---6-6-6-6-6---4-4-4-4-4--|
A--2-2-2-2-2---4-4-4-4-4---6-6-6-6-6---4-4-4-4-4--|
E-------------------------------------------------|
   kasi medyo naiinis ako kung itatapon mo....

========
Refrain:
========

e-------------------------------------------------|
B-------------------------------------------------|
G----2-2-2-2------4-4-4-4-4-----2-2-2-2-2---------|
D----2-2-2-2------4-4-4-4-4-----4-4-4-4-4---------|
A-----------------2-2-2-2-2-----4-4-4-4-4---------|
E-------------------------------------------------|
 wag kang mag alala di ako luluha kung may kapiling kang iba

e--------------------------------------------------------------|
B--------------------------------------------------------------|
G----2-2-2-2------4-4-4-4-4-----2-2-2-2-2--------2-2-2-2-2-2-2-|
D----2-2-2-2------4-4-4-4-4-----4-4-4-4-4--------2-2-2-2-2-2-2-|
A-----------------2-2-2-2-2-----4-4-4-4-4--------2-2-2-2-2-2-2-|
E--------------------------------------------------------------|
 di na pipilitin pa itong damdamin ko sayo medyo maninibago 
 pero ayos lang sakin to....

=======
Chorus:
=======

e-------------------------------------------------|
B-------------------------------------------------|
G--2-2-2-2-2---2-2-2-2-2---4-4-4-4-4---2-2-2-2-2--|
D--2-2-2-2-2---4-4-4-4-4---6-6-6-6-6---4-4-4-4-4--|
A--2-2-2-2-2---4-4-4-4-4---6-6-6-6-6---4-4-4-4-4--|
E-------------------------------------------------|
 Pwede ba sabihin mo? maghihintay ako sayo

e---------------------------------------------------|
B---------------------------------------------------|
G--2-2-2-2-2---2-2-2-2-2---4-4-4-4-4----6-6-6-6-6---|
D--2-2-2-2-2---4-4-4-4-4---6-6-6-6-6----7-7-7-7-7---|
A--2-2-2-2-2---4-4-4-4-4---6-6-6-6-6----7-7-7-7-7---|
E---------------------------------------5-5-5-5-5---|
 Kasi medyo naiinip na ako sa ikot ng mundo...

========
Verse 2:
========

e-------------------------------------------------|
B-------------------------------------------------|
G--2-2-2-2-2---2-2-2-2-2---4-4-4-4-4---2-2-2-2-2--|
D--2-2-2-2-2---4-4-4-4-4---6-6-6-6-6---4-4-4-4-4--|
A--2-2-2-2-2---4-4-4-4-4---6-6-6-6-6---4-4-4-4-4--|
E-------------------------------------------------|
 pwede bang isipin mo nahihirapan din naman ako

e-------------------------------------------------|
B-------------------------------------------------|
G--2-2-2-2-2---2-2-2-2-2---4-4-4-4-4---2-2-2-2-2--|
D--2-2-2-2-2---4-4-4-4-4---6-6-6-6-6---4-4-4-4-4--|
A--2-2-2-2-2---4-4-4-4-4---6-6-6-6-6---4-4-4-4-4--|
E-------------------------------------------------|
 sa paghintay langn g kung ano-ano nagmumula sa iyo

========
Refrain:
========

e-------------------------------------------------|
B-------------------------------------------------|
G----2-2-2-2------4-4-4-4-4-----2-2-2-2-2---------|
D----2-2-2-2------4-4-4-4-4-----4-4-4-4-4---------|
A-----------------2-2-2-2-2-----4-4-4-4-4---------|
E-------------------------------------------------|
 at huwag kang magtataka kung ako'y biglang makita na nag iisa

e--------------------------------------------------------------|
B--------------------------------------------------------------|
G----2-2-2-2------4-4-4-4-4-----2-2-2-2-2--------2-2-2-2-2-2-2-|
D----2-2-2-2------4-4-4-4-4-----4-4-4-4-4--------2-2-2-2-2-2-2-|
A-----------------2-2-2-2-2-----4-4-4-4-4--------2-2-2-2-2-2-2-|
E--------------------------------------------------------------|
 nakahiga lang sa kama at iniisip kong ito baka pa biglang pang magbago
 makayanan ko sana to...

=======
Chorus:
=======
e-------------------------------------------------|
B-------------------------------------------------|
G--2-2-2-2-2---2-2-2-2-2---4-4-4-4-4---2-2-2-2-2--|
D--2-2-2-2-2---4-4-4-4-4---6-6-6-6-6---4-4-4-4-4--|
A--2-2-2-2-2---4-4-4-4-4---6-6-6-6-6---4-4-4-4-4--|
E-------------------------------------------------|
 Pwede ba sabihin mo mag hihintay ako sayo

e---------------------------------------------------|
B---------------------------------------------------|
G--2-2-2-2-2---2-2-2-2-2---4-4-4-4-4----6-6-6-6-6---|
D--2-2-2-2-2---4-4-4-4-4---6-6-6-6-6----7-7-7-7-7---|
A--2-2-2-2-2---4-4-4-4-4---6-6-6-6-6----7-7-7-7-7---|
E---------------------------------------5-5-5-5-5---|
 Kasi medyo naiinip nako sa ikot ng mundo

=====
Solo: x2
=====

e-------------------------------------------------|
B-------------------------------------------------|
G--2-2-2-2-2---2-2-2-2-2---4-4-4-4-4---2-2-2-2-2--|
D--2-2-2-2-2---4-4-4-4-4---6-6-6-6-6---4-4-4-4-4--|
A--2-2-2-2-2---4-4-4-4-4---6-6-6-6-6---4-4-4-4-4--|
E-------------------------------------------------|

========
Refrain:
========

e--------------------------------------------------------|
B--------------------------------------------------------|
G----2-2-2-2------4-4-4-4-4-----2-2-2-2-2------2-2-2-2---|
D----2-2-2-2------4-4-4-4-4-----4-4-4-4-4------2-2-2-2---|
A-----------------2-2-2-2-2-----4-4-4-4-4----------------|
E--------------------------------------------------------|
 At huwag kang mag-alala di ako luluha kung may kapiling kang iba
 di na pipilitin pa..

e--------------------------------------------------------------|
B--------------------------------------------------------------|
G----2-2-2-2------4-4-4-4-4-----2-2-2-2-2--------2-2-2-2-2-2-2-|
D----2-2-2-2------4-4-4-4-4-----4-4-4-4-4--------2-2-2-2-2-2-2-|
A-----------------2-2-2-2-2-----4-4-4-4-4--------2-2-2-2-2-2-2-|
E--------------------------------------------------------------|
 Itong damdamin ko sayo medyo maninibago sana makayanan ko sana to...

============
Last Chorus: x2
============

e-------------------------------------------------|
B-------------------------------------------------|
G--2-2-2-2-2---2-2-2-2-2---4-4-4-4-4---2-2-2-2-2--|
D--2-2-2-2-2---4-4-4-4-4---6-6-6-6-6---4-4-4-4-4--|
A--2-2-2-2-2---4-4-4-4-4---6-6-6-6-6---4-4-4-4-4--|
E-------------------------------------------------|
 Pwede ba sabihin mo mag-hihintay ako sayo

e---------------------------------------------------|
B---------------------------------------------------|
G--2-2-2-2-2---2-2-2-2-2---4-4-4-4-4----6-6-6-6-6---|
D--2-2-2-2-2---4-4-4-4-4---6-6-6-6-6----7-7-7-7-7---|
A--2-2-2-2-2---4-4-4-4-4---6-6-6-6-6----7-7-7-7-7---|
E---------------------------------------5-5-5-5-5---|
 Kasi medyo naiinip ako sa ikot ng mundo

=======
Outro: x4
=======

e-------------------------------------------------|
B-------------------------------------------------|
G--2-2-2-2-2---2-2-2-2-2---4-4-4-4-4---2-2-2-2-2--|
D--2-2-2-2-2---4-4-4-4-4---6-6-6-6-6---4-4-4-4-4--|
A--2-2-2-2-2---4-4-4-4-4---6-6-6-6-6---4-4-4-4-4--|
E-------------------------------------------------|
 At pwede ba... pwede ba... pwede ba

====
End
====

Hi to my band m8ts
Aki:Vocals/Bass
Reiji:Vocals/Pianist
Jr:Lead Guitarist
Russel:Drummer

para to sa mga taong nag aantay ng matagal like charles diaz ^_^
            
Hard to play? Try these video lessons and learn fast. | Correct




comments powered by Disqus
↑ Back to top | Tablatures and chords are parodies/interpretations of the original songs. You may use it for private study, scholarship, research or language learning purposes only