>
 >
Dahil Sa Ulan 1

Dahil Sa Ulan 1 Guitar Tabs

Soapdish - Dahil Sa Ulan 1 chords, tabs, tablatures, lyrics

Guitar lessons | Add/correct | Request | Top 50 tabs Artists:  A B C D E F G H I J K L M N O P Q R S T U V W X Y Z 0-9

Dahil Sa Ulan 1 Guitar Tabs – Soapdish

CD, Sheet music, Poster

Do you like Dahil Sa Ulan 1? Share with your friends now
ChordsTabsTabs v2Ukulele


Intro 1

 Guitar 1 Clear [ A - A\G# - F#m - Dm - E ]
 |-------------------------------------------------------------------|
 |-------------------------------------------------------------------|
 |-------2-1-2-1--------2-1-2-1---------2-1-2-1---------2-1-2-1------|
 |-------2-2-2-2-2-2----2-2-2-2-2-2-----2-2-2-2-2-2-----2-2-2-2-2-2--|
 |---0-0---------------0-0-------------------------------------------|
 |----------------------------------4-4-------------4-4--------------|

 |------------------------------------------------------------|
 |------------------------------------6---6--------7---7------|
 |-----2-1-2-1--------2-1-2-1------------7--7---------7--7----|
 |-----2-2-2-2-2-2----2-2-2-2-2-2----7--7----7---9--7-----7---|
 |----------------------------------5----------7--------------|
 |--2-2------------2-2----------------------------------------|

Intro 2

 Guitar 1 Repeat Intro 1
 Guitar 2 Lead
 |--12---------------------12---------------------------------------------|
 |-------10---12--------------------10---12---10--/------6-------8-6------|
 |---------------------------------------------------------------------9--|
 |------------------------------------------------------------------------|
 |------------------------------------------------------------------------|
 |------------------------------------------------------------------------|
Verse

 Guitar 1 Repeat Intro 1
 Guitar 2 [ A -A\G# - F#m - Dm - E ]

Chorus

 Guitar 1 [ D - C#m - D - C#m - D - C#m - Bm -Dm - E ]

 Guitar 2
 |--------------12----------12----12--|
 |----9-h-10-----9-h-10----10---------|
 |------------------------------------|
 |------------------------------------|
 |------------------------------------|
 |------------------------------------|

Repeat Verse
Repeat Chorus
Repeat Intro 1

Bridge

Bass Part

 Both Guitars [ A - A\G# - F#m - Dm - E ]

Bass
 |-------------------------------------------------------------------|
 |-----7-6-7-6---7-\-9--7-6---6-7--------7-6-7-6--7-\-9--7-6---6-7---|
 |-------------7------------7------7------------7------------7----7--|
 |--5-5------------------------------4-4-----------------------------|

 |------------------------------------------------------------------|
 |-------4-3---4-\-6---4---3-------- -------------------------------|
 |------------4--------------------5-----7-5-4---------2--------0---|
 |--2---------------------------------------------------------------|

 |-------------------------------------6----6-6-h-7------6-----------------|
 |---------7-6-7-6----7-\-9--7-9----9-------------------------9-------7----|
 |------------------7------------------------------------------------------|
 |--5--5-------------------------------------------------------------------|

 |---------------------------------------------------------------------|
 |-------4-3---4-\-6---4---3-------- ----------------------------------|
 |------------4-------------------5-5-5-5-5-5-5-5-7-7-7-7-7-7-7-7------|
 |--2------------------------------------------------------------------|

Lead Part

 Guitar 1 [ D - C#m - D - C#m ]

 Guitar 2 Lead
 |------------------------------------------------------|
 |------------------------------------------------------|
 |--7---9--11---13---14-14-14----13--11---9---7---9-9---|
 |--x---x---x----x---x--x--x------x---x---x---x---x-x---|
 |--5-\-7-\-9-\-11-\-12-12-12--/-11-/-9-/-7-/-5-\-7-7---|
 |------------------------------------------------------|

 |--------------------------------------------------|
 |--------------------------------------------------|
 |--7---9--11--13----14---16-16-16-16-16-16-16-16---|
 |--x---x---x---x----x----x--x--x---x--x--x--x--x---|
 |--5-\-7-\-9-\-11-\-12-\-14-14-14-14-14-14-14-14---|
 |--------------------------------------------------|

Repeat Chorus

Guitar 2 enters before the ending
 |---12--12--12--12--12--12--12--12--12-/----|
 |-------------------------------------------|
 |-------------------------------------------|
 |-------------------------------------------|
 |-------------------------------------------|
 |-------------------------------------------|

Ending

 Guitar 1 [ A - A\G# - F#m - Dm - E ]

 Guitar 2 Lead
 |--------------------------------------------------------------|
 |----10-p-9--10--12b----9-\-10b----10-p-9-10--12b--------------|
 |--------------------------------------------------------------|
 |--------------------------------------------------------------|
 |--------------------------------------------------------------|
 |--------------------------------------------------------------|

 |----------------------------------------------------------|
 |----9-\-10b----10-----10-p-9-10--12b----6---6-h-8--6------|
 |-------------------------------------------------------9--|
 |----------------------------------------------------------|
 |----------------------------------------------------------|
 |----------------------------------------------------------|

 |--------------12----12-----12-----12-----12-----12--12---|
 |--10-9-10-9-10--9-10--9-10---9-10---9-10---9-10----------|
 |---------------------------------------------------------|
 |---------------------------------------------------------|
 |---------------------------------------------------------|
 |---------------------------------------------------------|

 |-------12-----12-----12-----12------12-12-\-14-14-14-14-14-14 /------|
 |--9-10---9-10---9-10---9-10---9-10-----------------------------------|
 |---------------------------------------------------------------------|
 |---------------------------------------------------------------------|
 |---------------------------------------------------------------------|
 |---------------------------------------------------------------------|

 Guitar 1
 |------------------------------------------------------------------------|
 |------------------------------------------------------------------------|
 |------2-1-2-1--------2-1-2-1----------2-1-2-1---------------------------|
 |------2-2-2-2-2-2----2-2-2-2-2-2------2-2-2-2-2-2-----------------------|
 |-0-0---------------0-0----------------0-0-------------0---0---0---0--0--|
 |------------------------------------------------------------------------|





Comments


Popular Soapdish tabs & chords
Ely Buendia Chords
Kahit Maputi Na Ang Buhok Ko 1 Chords
Pain Redefined Chords
Pwede Ba 2 Chords
Sandali Chords
Adjust Ukulele
Ely Buendia Ukulele
Higher Ukulele
Hosanna Ukulele
Would You Ukulele


Song lyrics



↑ Back to top | Tablatures and chords are parodies/interpretations of the original songs. You may use it for private study, scholarship, research or language learning purposes only
© 2014 AZChords.com Contact us | Privacy policy | DMCA | Add/correct tabs | Request tabs | Top 50 tabs