» » »

Smashing Pumpkins, Zero Tabs (ver.2)

Artists:  A B C D E F G H I J K L M N O P Q R S T U V W X Y Z # 

Zero Tabs (ver.2)

Smashing Pumpkins Tabs
 Rating:
4/5 (4 votes)
Zero lessons Tabs too difficult? Try these video lessons and learn fast
1
                This is Zero By The Smashing Pumpkins"  Use plenty of distortion!
Repeat Intro many times.
---------------------|--------------------------------------------------
---------------------|--------------------------------------------------
---5/4---------------|---9---11---9---12---11---------------------------
---------------------|--------------------------------------------------
---3/2---------------|---7---9----7---10----9---------------------------
--------0---0--0--0--|---------------------10---------------------------
"Emptiness is lovliness...."
--------------|---------------------------------------------------------
--------------|---------------------------------------------------------
---9--9---9---|---------------------------------------------------------
---9--9---9---|---------------------------------------------------------
---7--7---7---|---------------------------------------------------------
--------------|---------------------------------------------------------

The little solo thing is way whacked and I don't even know what kind of
effect Billy uses but I know that he has something that makes a fast
repeating echo.
            
Submit corrections

comments powered by Disqus
↑ Back to top | Smashing Pumpkins Tabs for Zero. Lyrics for acoustic guitar and electric guitar. 1 Tablatures and chords are parodies/interpretations of the original songs. You may use it for private study, scholarship, research or language learning purposes only