» » »

Smashing Pumpkins, Unknown Tabs (ver.2)

Artists:  A B C D E F G H I J K L M N O P Q R S T U V W X Y Z # 

Unknown Tabs (ver.2)

Smashing Pumpkins Tabs
 Rating:
4/5 (4 votes)
Unknown lessons Tabs too difficult? Try these video lessons and learn fast
1
                
UNKNOWN (song after Speed) - as performed by the Smashing Pumpkins

Eb tuning

*1

|----------------------------------------------
|----------------------------------------------
|----------------------------------------------
|-----------7~-6----4--4-4-4-7--9-11-----------
|-4-2-------X--6----4--4-4-4-7--9-11-----------
|-----4-2-0-5~-4--0-2--2-2-2-5--7-9------------

*2

|----------------------------------------------
|----------------------------------------------
|-4/6-6-6-6------------------------------------
|-4/6-6-6-6-2--2-2-----4/6-6-6-6-7--7--7/9-9-9-
|-2/4-4-4-4-2--2-2-----4/6-6-6-6-7--7--7/9-9-9-
|-----------0--0-0-0-0-2/4-4-4-4-5--5--5/7-7-7-

*3

|----------------------------------------------
|----------------------------------------------
|-6--------------------------------------------
|-6--6-7--6--6/9-9-9-9-4--4--2-----------------
|-4--6-7--6--6/9-9-9-9-4--4--2-----------------
|-4--4-5--4--4/7-7-7-7-2--2--0-----------------

*4

|----------------------------------------------
|----------------------------------------------
|---------6------------------------------------
|---------6-7--7--6-7\6-6-6-6-6\4-4-4-4--------
|-4-2-----4-7--7--6-7\6-6-6-6-6\4-4-4-4--------
|-----4-2---5--5--4-5\4-4-4-4-4\2-2-2-2--------
  ^^^^^^^^^^^
  this is
  pretty hard 
  to pull, so I
  don't know if it's
  right...

*5 (part where Billy sings high)

|----------------------------------------------
|----------------------------------------------
|-6--9-----------------------------------------
|-6--9--7--6--9hbr-----------------------------
|-4--7--7--X--X--------------------------------
|----0--5--4--7hbr-----------------------------

I'm really unsure about *5, so any help or suggestions are welcome.

There are all the main riffs, and there are some transitional 
variations that I didn't tab (mostly some minor slides) that are
easy to figure out.  If everybody has immense trouble with them, I'll
tab them later, but now I'm too lazy...

song map:

*1 *2 *3 *2 *4 *5 *2 *3 *1
            
Submit corrections

comments powered by Disqus
↑ Back to top | Smashing Pumpkins Tabs for Unknown. Lyrics for acoustic guitar and electric guitar. 1 Tablatures and chords are parodies/interpretations of the original songs. You may use it for private study, scholarship, research or language learning purposes only