» » »

Smashing Pumpkins, Tristessa Tabs (ver.2)

Artists:  A B C D E F G H I J K L M N O P Q R S T U V W X Y Z # 

Tristessa Tabs (ver.2)

Smashing Pumpkins Tabs
Rating:
0/5 (0 votes)
Tristessa lessons Tabs too difficult? Try these video lessons and learn fast
                I know that everyone expects all the new MCIS tabs.  But I haven't really seen
a good Tristessa tab out there.  It lacks solo but I don't have the patience.


Intro(and most of the song)
------------------------------------------
-----------------------------------------
----12*------------------9*--------------
------------------------------------------
----10*------------------7*--------------
----------0---0---0------------0---0---0-

The stars mean bend a quarter step and return

Second part
-----------------------------------------
-----------------------------------------
-----------------------------------------
2-2--2--2--2--2--2--2--------------
2-2--2--2--2--2--2--2----------------
0-0--0--0--0--0--0--0-------------------
Palm mute throughout.
Add some funky notes here and there and let off on the palm muting.  Listen to
the recording for correct rhythyms.

Back to intro
back to second part

Bridge
 E     G      A       E    D    B
--------------------------------------------
--------------------------------------------
--9----12-----14----------------------------
--9----12-----14------14---12----9----------
--7----10-----12------14---12----9----------
----------------------12---10----7----------
                     Pm-----------\
Play this once
then the second time just play  E, G, A
thrid time repeat all of it
fourth time play the E, G, A then this
  E          D           B           A
-----------------------------------------------------------
-----------------------------------------------------------
--9----------7-----------4---------------------------------
--9----------7-----------4-----------7---------------------
--7----------5-----------2-----------7---------------------
-------------------------------------5---------------------

Solo using the intro voicing's underneath

Then the second part.

Then end  with a quick repeat of the intro voicings.

This tab is quite weak but it's voicing should be very close to what Billy
might actually be playing.  You really never know.

Someone might be kind enough to add the solo but there usually a waste of time.
Just find the right key, and make some sh*t up.  If you have enough effects and
have decent speed you'll make it sound cool.  Many people who arent guitarists
would not even know if it's not really technical.
            
Submit corrections

comments powered by Disqus
↑ Back to top | Smashing Pumpkins Tabs for Tristessa. Lyrics for acoustic guitar and electric guitar. Tablatures and chords are parodies/interpretations of the original songs. You may use it for private study, scholarship, research or language learning purposes only