» » »

Smashing Pumpkins, Today Tabs (ver.1)

Artists:  A B C D E F G H I J K L M N O P Q R S T U V W X Y Z # 

Today Tabs (ver.1)

Smashing Pumpkins Tabs
Rating:
0/5 (0 votes)
Today lessons Tabs too difficult? Try these video lessons and learn fast
                The Smashing Pumpkins
"Today"
standerd tuning
Listen to the song to figure out the struming patturn
and if u dont have a fuzz pedal normal destortion works

RIFF 1/ intro  (clean) 
E--------------------------------
A--------------------------------
D--------------------------------  
G--------------------------------  
B------11----11----11----------11 
E---11----13----11----15p13p11---
repeat 2 times alone then 4 or 6 times under these cords

 (fuzz pedal) 
 Ebsus2	Bb  Ab  
E---6---6---4------  
A---6---8---6------   
D---8---8---6------ 
G---8---7---5------
B---6---6---4------
E---6---6---4------
play riff twice
then this one once
 Ebsus2 Bb  C   Ab
E---6---6---8---4-----------  
A---6---8---10--6-----------   
D---8---8---10--6-----------  
G---8---7---9---5-----------
B---6---6---8---4-----------
E---6---6---8---4-----------
then this one one more time
 Ebsus2 Bb  Ab  
E---6---6---4------  
A---6---8---6------   
D---8---8---6------ 
G---8---7---5------
B---6---6---4------
E---6---6---4------

Now click off the fuzz
	(clean)
 Ebsus2 Bb  Ab  
E---6---6---4------  
A---6---8---6------   
D---8---8---6------ 
G---8---7---5------
B---6---6---4------
E---6---6---4------
play 3 times
then this
 Ebsus2 Bb  C  
E---6---6---8--
A---6---8---10-   
D---8---8---10-  
G---8---7---9--
B---6---6---8--
E---6---6---8--
hit the "C" cord a few x-tra times
	chours
(FUZZ)
    F  Ab   C
E---1---4---8--------------  
A---3---6---10-------------   
D---3---6---10------------- 
G---2---5---9--------------
B---1---4---8--------------
E---1---4---8--------------
play 3 times then this

    F  Ab   G  Dsus2
E---1---4---3---5----------  
A---3---6---5---5----------   
D---3---6---5---7---------- 
G---2---5---4---7----------
B---1---4---3---5----------
E---1---4---3---5----------

(clean) 
Guitar 2 plays the intro riff over these cords

 Ebsus2	Bb  Ab  
E---6---6---4------  
A---6---8---6------   
D---8---8---6------ 
G---8---7---5------
B---6---6---4------
E---6---6---4------
play 3 times
then this
 Ebsus2 Bb  C  
E---6---6---8--
A---6---8---10-   
D---8---8---10-  
G---8---7---9--
B---6---6---8--
E---6---6---8--
hit the "C" cord a few x-tra times

(FUZZ)

    F  Ab Ebsus2 Bb
E---1---4---6----6---
A---3---6---6----8---
D---3---6---8----8---
G---2---5---8----7---
B---1---4---6----6---
E---1---4---6----6---
play 3 times then this

    F  Ab   G  Dsus2
E---1---4---3---5----------  
A---3---6---5---5----------   
D---3---6---5---7---------- 
G---2---5---4---7----------
B---1---4---3---5----------
E---1---4---3---5----------

Still Fuzzed (keep it on till the end)
 Ebsus2 Bb Ebsus2 Ab
E---6---6----6----4---
A---6---8----6----6---  
D---8---8----8----6---  
G---8---7----8----5---
B---6---6----6----4---
E---6---6----6----4---
play twice then
 Ebsus2 Bb  C   Ab
E---6---6---8---4-----------  
A---6---8---10--6-----------   
D---8---8---10--6-----------  
G---8---7---9---5-----------
B---6---6---8---4-----------
E---6---6---8---4-----------
play once
 Ebsus2 Bb  C  
E---6---6---8--
A---6---8---10-   
D---8---8---10-  
G---8---7---9--
B---6---6---8--
E---6---6---8--
play once hit the "C" cord a lot aka like 20 times

    F  Ab   C
E---1---4---8--------------  
A---3---6---10-------------   
D---3---6---10------------- 
G---2---5---9--------------
B---1---4---8--------------
E---1---4---8--------------
play 3 times then this

    F  Ab   G  Dsus2
E---1---4---3---5----------  
A---3---6---5---5----------   
D---3---6---5---7---------- 
G---2---5---4---7----------
B---1---4---3---5----------
E---1---4---3---5----------
play once then this
other guitar plays intro riff over these cords

 Ebsus2 Bb  C   Ab
E---6---6---8---4-----------  
A---6---8---10--6-----------   
D---8---8---10--6-----------  
G---8---7---9---5-----------
B---6---6---8---4-----------
E---6---6---8---4-----------
play 4 times then end on Ebsus2
            
Submit corrections

comments powered by Disqus
↑ Back to top | Smashing Pumpkins Tabs for Today. Lyrics for acoustic guitar and electric guitar. Tablatures and chords are parodies/interpretations of the original songs. You may use it for private study, scholarship, research or language learning purposes only